Король и ШутПервая кровь (Ария Священника и Тодда) Текст

0 Голосов
Вступление / Riff:
3|------3-----3------5------5------5------|
4|----3-----3----3-----3-------3------3---|x4
5|--0-----0----0----------0-------0-------|

--------2---------2---------1-------1------1----|
----2---------2--------2------1------1------1---|x2
-0--------0---------0------------0------0-------|

Куплет:
Riff
Вот наконец-то прорвалась
Riff
С этой первой кровью
Riff
Боль моя, боль моя...
Riff
Боль моя, боль моя...

A G
Но кто сказал, что он
D F G
Не сможет мне простить?
A G
Он слишком слаб,
D F G
Он сам не в силах отомстить!

A G
Он слишком добр, он слишком слаб -
D F G
Как ты быстро смог заучить урок,
A G D F G
Он сам своих заветов - враг!
A G
Он слишком слаб!

Em A
Скажи, а кто сегодня без греха?
Em A Em
И что сегодня надлежит
A
У нас считать грехом?
Em A
Когда потоки зла

Em D
В вену моих жил несет река,
A G
Все сходит с рук,
D
Когда подруга мора -
F G Em
Содома, кругом темно,

A G D
И даже днем в твое окно
F G
Уже не светит солнце.
F
И вокруг всем давно
G
Стало все равно...

Куплет 2:
Riff
Вот наконец-то прорвалась
Riff
С этой первой кровью
Riff
Боль моя, боль моя...
Riff
Боль моя, боль моя...

A G
А кто сказал,
D F G
Что я не вправе отомстить?
A G
Когда душа не в силах
D F G
Боль мою вместить!

A G
Я буду рад стоять у врат -
D F G
Стоять у врат, твой заклятый враг!
A G D F G
Что в ад, что в рай, что в рай, что в ад,
A G
Что в рай, что в ад!

Em A
По всей земле змеей ползет разврат,
Em A Em
Ты, как солдат, бесстрашно вставший на его пути,
A
И каждый, кто перед тобой
F G Em
Хоть чем-то виноват.

A G D
Кем бы он не был, должен, должен кару понести!
F G
Тут виноват и прокурор, и адвокат, и судья продажный
F
Виноват, виноват!
G
Каждый виноват!

Заключение = Вступление:
3|------3-----3------5------5------5------|
4|----3-----3----3-----3-------3------3---|x4
5|--0-----0----0----------0-------0-------|

--------2---------2---------1-------1------1----|
----2---------2--------2------1------1------1---|x2
-0--------0---------0------------0------0-------|
Другие песни: