Король и ШутЛесник (intro) Текст

0 Голосов
Am
E|--------------------0-0-----------|
B|---------1-1--3-3-----------------|
G|-----2----------------------------|
D|----------------------------------|
A|--0-------------------------------|
E|----------------------------------|
F
e|------------3-3--1-1--------------|
B|-------1-1------------------------|
G|----2-----------------------------|
D|----------------------------------|
A|--3-------------------------------|
E|----------------------------------|

Dm
e|------------3-3-0-0---------------|
B|-------3-3------------------------|
G|----2-----------------------------|
D|----------------------------------|
A|--0-------------------------------|
E|----------------------------------|

G
e|----------------------------------|
B|-------0-0-1-1-3-3----------------|
G|----------------------------------|
D|----0-----------------------------|
A|----------------------------------|
E|--3-------------------------------|
Другие песни: