Король и ШутКукольный театр (2 вариант) Текст

0 Голосов
D G
в кукольный театр
A D
всех карлик приглашал:
Кто вечером придет,
Тот со смеху умрет!
Будет вам очень, очень хорошо,
Деньги не жалей, богатей!
A
вечер смеха и страстей!

Riff1:

G|-11-11-9-9-11-11-9-9-11-11-9-9-12-11__---

G|-11-11-9-9-11-11-9-9-11-11-9-9-7__-------

D G A D
выбежал на сцену плюшевый пингвин,
И тонким голоском он громко завопил:
Гады все, кто здесь сейчас сидит!
На всех я вас зачем-то
Просто так сердит!

G7 F#7 Bm
в театре такое впервые,
Bm D E F#7
в театре такое сегодня впервые!
G7 F# Bm
все куклы сегодня живые,
Bm E F#
все куклы сегодня, сегодня живые!

Riff1

волк на сцену вышел, песенку запел
Про то, как он недавно пол-деревни съел.
А следом вышла девушка в одних трусах...
И на части разорвалась у всех на глазах.

в театре такое впервые,
в театре такое сегодня впервые!
все куклы сегодня живые,
все куклы сегодня, сегодня живые!

E|---------------------------------------------
B|--------------------------------11~-11~------
G|--11-11-9-9-11-11-9-9-11-11-9-9------------+- x2
D|---------------------------------------------
A|---------------------------------------------
E|---------------------------------------------

G|--------9-11-12-12-12-12---------9-11-12-12-- x2
D|--12-12--------------------12-12-------------
A|---------------------------------------------
E|---------------------------------------------

А вот на сцену выбежал крутой ковбой -
Пол-зала расстрелял, потом покончил с собой.
Ужасный заяц громко прокричал: Пожар!
И, бросив факел в зал, со сцены убежал.

в театре такое впервые,
в театре такое сегодня впервые!
все куклы сегодня живые,
все куклы сегодня, сегодня живые!
Другие песни: