Король и ШутГолые коки Текст

0 Голосов
Bass:
1|-----------------------------
2|-----------------------------
3|----------------------------- x2
4|-----------------------------
5|-0-0----------0-0------------
6|-----3-0-3-0------3-0--------

1|----------------------------
2|----------------------------
3|----------------------------
4|-0-0----------0-0-----------
5|-----3-0-3-0----------------
6|-------------------1-3------

1|----------------------------
2|----------------------------
3|----------------------------
4|----------------------------
5|-0-0----------0-0-----------
6|-----3-0-3-0------1-3-------

Аm
Не надо меня утешать, это мне не поможет,
Аm
Любимая девушка очень жестоко обидела.
Dm
Стыдливое чувство меня беспристрастно тревожит-
Am
Она меня с голыми коками взяла и увидела!

F G C Am
Припев: Голые коки,
Dm G C Am
Голые коки,
F G C Am
Голые коки,
Dm G C
Голые ко ко ки.

Аm
"Неслыханный вздор!"- говорят мне друзья и соседи.
Аm
"Для женщин подобное зрелище не безобразно.
Dm
Стыдятся подобных вещей лишь наивные дети,
Аm
А в сущности голые коки-это прекрасно!"

Аm
Но этот вопрос понимаю гораздо я глубже,
Аm
Когда бы все начали коки показывать дружно,
Dm
Девчонки вскоре от этого вида устали,
Аm
И к кокам тогда относится безтрепетно стали.

F G C Am
Припев: Голые коки,
Dm G C Am
Голые коки,
F G C Am
Голые коки,
Dm G C
Голые ко ко ки.
Другие песни: