Константин АрбенинГорошина Текст

0 Голосов
Intro: Em Am7 B7

Em Am D G
Утро брошенное, ночь непрошеная,
C Am b7 Em
На гербе фамильном - горностай и лось.
Королева утром огорошенная -
Ей опять сегодня ночью не спалось.

Am D
Но уже ничего не исправить -
G C
День рабочий, и надо править.
Am B7
По живому марать и править,
Em B7 Em
Ставить авелеву печать.

И нести себя в строгой раме,
И блюсти себя, как в оправе,
Чтоб себя исключать из правил,
И условиям отвечать.

G ----------4--4--2---------------2--2----------
D ---2-4-5----------5-4-----2-4---------5-4-2---
A ------------------------5---------------------
E ----------------------------------------------

G --------------------------------------------
D -------2--5--5--4-2-------------------------
A ---3-5--------------5---5---5-3-2---2-------
E -------------------------------------5-3----

Утро сброшенное, ночь отброшенная,
У кровати справа - зверобой и лёд.
Под матрацем завелась горошина и
Королеве спать спокойно не даёт.

Но уже ничего не исправить -
Не вернуть, не свернуть, не вставить,
Только снег из-за старых ставен
Бестолковому дню вдогон.

На душе - ледяная замять,
И горошины злая память
Норовит уколоть и ранить,
Разрастаясь, как снежный ком.

Утро брошенное, ночь заброшенная,
Под короной - явь и головная боль.
И катается в мозгу горошина, и
Королевской водит волей и рукой.

И уже ничего не исправить -
Та горошина нами правит
И решает, кто в этой драме
На бесправие обречён.

Только всё это против правил:
У горошины нету граней,
Значит, ей тоже кто-то правит,
И горошина не при чём.
Другие песни: