KlankPenetrate Текст

0 Голосов
Http://www.klank.net


Klank - Penetrate
Submitted By: Schecter Man

Tabber: John Cukras
Email: riffreaper@yahoo.com

Tuning: Normal

Riff 1:
E--------------------------------------------------------
B--------------------------------------------------------
G--------------------------------------------------------
D-5/7-5/7-5/8/5-5/7/5-5-7-8-5/7-5/7-5/8/5-5/7/5----------
A-3/5-3/5-3/6/3-3/5/3-3-5-6-3/5-3/5-3/6/3-3/5/3----------
E-----------------------------------------------0000000--
pm .......

Riff 2:
E--------------------------------
B--------------------------------
G--------------------------------
D----------------------5555-3333-
A-11-----11-----11-----3333-1111-
E-11-000-11-000-11-000-----------
pm ... ... ...

Riff 3:
E-------------------------------------------------------------------------------
B-------------------------------------------------------------------------------
G-------------------------------------------------------------------------------
D-33333333-55---------------------33333333-55-----------------------33333333-55-
A-11111111-33-111-7-6-5-111-7-6-5-11111111-33--111-7-6-5--111-7-6-5-11111111-33-
E-------------111-------111--------------------111--------111-------------------

E----------------------------------------------------------------------
B----------------------------------------------------------------------
G----------------------------------------------------------------------
D----------------------33333333-55-------------------------------------
A-111-7-6-5-111-7-6-5--11111111-33-111-7-6-5--111-7-6-5--111-7-6-5-111-
E-111-------111--------------------111--------111--------111-------111-
Другие песни: