KlankNumb Текст

0 Голосов
http://www.klank.net


Band: Klank
Song: Numb

Tabber: John Cukras
Email: riffreaper@yahoo.com

Tuning: Normal

Riff 1:
E---------------------------
B---------------------------
G---------------------------
D-------------7----5--------
A-3/5---------5----3--------
E-1/3-0000-00---00---000000-
pm .... .. .. ......

Riff 2:
E----------------------------------
B----------------------------------
G----------------------------------
D----------------------------------
A-55-5-5-55-5/7-55-5-5-55-5/77777--
E-33-3-3-33-3/5-33-3-3-33-3/55555--

Riff 3:
E----------------------------------------
B----------------------------------------
G----------------------------------------
D-4---4-------4---4------------3---------
A-2---2--5-4--2---2--5-4-3-----1--8-8-7--
E--------3-2---------3-2-1--------6-6-5--

Riff 4:
E-----------------------
B-----------------------
G-----------------------
D--------------1--------
A-3/5----------3-8-8-7--
E-1/3-000000-----6-6-5--
pm ......
Другие песни: