KlankDont Like Текст

0 Голосов
Http://www.klank.net


Klank - Don't Like
Submitted By: Schecter Man

Tabber: John Cukras
Email: riffreaper@yahoo.com

Tuning: D A D

Riff 1:
D----------------------------------------
A-3-33-1111-3-33-1111-3-33-1111-3-3-6-6--
D-3-33-1111-3-33-1111-3-33-1111-3-3-6-6--

Riff 2:
D-3/5-3/5-------3/5-3/5-------3/5-3/5--------
A-1/3-1/3-4-3-2-1/3-1/3-4-3-2-1/3-1/3-6-5-4--
D---------4-3-2---------4-3-2---------6-5-4--

Riff 3:
D-------33------55-
A-------11------33-
D-0000-----0000----
pm.... ....

Riff 4: (outro)
D------55-3/5-
A------33-1/3-
D-0000--------
pm....
Другие песни: