KissShe Текст, аккорды

0 Голосов
Rhythm Figure 1
E---|--------------|----------------------------||----------------------
B---|--------------|-------0--3--0-------0--3---||----------------------
G---|--------9--9--|--2h3-----------2h3---------||--------9-------------
D---|--2--2--9--9--|----------------------------||--2--2--9--2--2-------
A---|--2--2--7--7--|----------------------------||--2--2--7--2--2-------
E---|--0--0--------|----------------------------||--0--0-----0--0-------

Solo:
E-------|----------|--------0-----------|----------------0--3--0--------
B-------|-------0--|--3--0-----3--0--3--|----------0--3-----------3-----
G---12--|--2h3-----|--------------------|-----2h3-----------------------
D---12--|----------|--------------------|--2----------------------------
A---10--|----------|--------------------|-------------------------------
E-------|----------|--------------------|-------------------------------

E---0--3--0-----0--3--0-----0-----------|--------------|----------------
B------------3-----------3-----3--0--3--|--------------|--0--0-----0----
G---------------------------------------|--------9--7--|--------2-------
D---------------------------------------|--2--2--9--7--|----------------
A---------------------------------------|--2--2--7--5--|----------------
E---------------------------------------|--0--0--------|----------------

Chorus:
E---3--0--|-----------------------|--------------|--------------3--|----
B---------|-----------------------|--------------|--0--0-----0-----|----
G---------|--2--2--2--2--2--2--2--|--------9--7--|--------2--------|----
D---------|--2--2--2--2--2--2--2--|--2--2--9--7--|-----------------|----
A---------|--0--0--0--0--0--0--0--|--2--2--7--5--|-----------------|----
E---------|-----------------------|--0--0--------|-----------------|----

E------------|--------------------------------------|-------------------
B------------|--------------------------------------|-------------------
G------------|--------------------------------0--2--|-------------------
D---2--2--0--|--2--0--2--0--2--0--2--0--2--0--------|--2--2--0--2--0----
A------------|--------------------------------------|-------------------
E------------|--------------------------------------|-------------------

E---------------------------------|-------------------------------------
B---------------------------------|-------------------------------------
G---------------------------0--2--|-------------------------------------
D---2--0--2--0--2--0--2--0--------|--2--2-----2-----2-----2-----2-------
A---------------------------------|--2--2--0--2--0--2--0--2--0--2--0----
E---------------------------------|--0--0--0--0--0--0--0--0--0--0--0----

E----------------||-------------------|-------------------|-------------
B----------------||-------------0--3--|-------------0--3--|-------------
G----------------||--9--9--2h3--------|--9--9--2h3--------|-----9--9----
D---2-----5--7---||--9--9-------------|--9--9-------------|-----9--9----
A---2--0--5--7---||--7--7-------------|--7--7-------------|-----7--7----
E---0--0--3--5---||-------------------|-------------------|-------------

E------------------|-----------|-----------|----------------------------
B--------0-----3^--|-----------|-----------|----------------------------
G---2h3------------|-----------|--9--9--9--|----------------------------
D------------------|--2--2--2--|--9--9--9--|----------------------------
A------------------|--2--2--2--|--7--7--7--|----------------------------
E------------------|--0--0--0--|-----------|----------------------------
Другие песни: