KinksSunny Afternoon (bass) Текст

0 Голосов
Tuning : E A D G Time Signature: 4/4

tempo 123 | | | | | |
|7-------7-----------------------|--------------------------------|
|----------------10------10------|9-------9-------8-------8-------|
|--------------------------------|--------------------------------|
|--------------------------------|--------------------------------|

| | | | | | | |
|--------------------------------|--------------------------------|
|7-------7-------5-------5-------|--------------------------------|
|--------------------------------|8-------8-------7-------7-------|
|--------------------------------|--------------------------------|

| | | | | | | |
|7-------7-----------------------|--------------------------------|
|----------------10------10------|9-------9-------8-------8-------|
|--------------------------------|--------------------------------|
|--------------------------------|--------------------------------|

| | | | | | | |
|--------------------------------|--------------------------------|
|7-------7-------5-------5-------|--------------------------------|
|--------------------------------|8-------8-------7-------7-------|
|--------------------------------|--------------------------------|

| | | | | | | |
|7-------------------------------|----------------0---------------|
|----------------7-------5-------|--------------------------------|
|--------------------------------|3-------------------------------|
|--------------------------------|--------------------------------|

| | | | | | | |
|--------------------------------|----------------0---------------|
|3---------------3---------------|--------------------------------|
|--------------------------------|3-------------------------------|
|--------------------------------|--------------------------------|

| | | | | | | |
|2-------2-------0-------0-------|--------------------------------|
|--------------------------------|3-------3-------2-------2-------|
|--------------------------------|--------------------------------|
|--------------------------------|--------------------------------|

| | | | | | | |
|----------------2---------------|----------------0---------------|
|0-------------------------------|--------------------------------|
|--------------------------------|3-------------------------------|
|--------------------------------|--------------------------------|

| | | | | | | |
|--------------------------------|----------------0---------------|
|3-----------------------3-------|--------------------------------|
|--------------------------------|3-------------------------------|
|--------------------------------|--------------------------------|

| | | | | | | |
|2-------2-------0-------0-------|--------------------------------|
|--------------------------------|3-------3-------2-------2-------|
|--------------------------------|--------------------------------|
|--------------------------------|--------------------------------|

| | | | | | | |
|----------------2---------------|--------------------------------|
|0-------------------------------|0-------------------------------|
|--------------------------------|--------0-------2-------4-------|
|--------------------------------|--------------------------------|

| | | | | | | |
|----------------2---------------|----------------2-------2-------|
|0-------------------------------|0-------------------------------|
|--------------------------------|--------------------------------|
|--------------------------------|--------------------------------|

| | | | | | | |
|0---------------0---------------|0-------------------------------|
|--------------------------------|--------3-------2-------0-------|
|--------------------------------|--------------------------------|
|--------------------------------|--------------------------------|

| | | | | | | |
|----------------0---------------|--------------------------------|
|--------------------------------|----------------0-------2-------|
|3-------------------------------|3-------3-----------------------|
|--------------------------------|--------------------------------|

| | | | | | | |
|--------------------------------|2-------0-----------------------|
|3-------3-------3-----3-3-------|----------------3-------2-------|
|--------------------------------|--------------------------------|
|--------------------------------|--------------------------------|

| | | | | | | |
|--------2---------------2-------|0-------0---------------0-------|
|0---------------0---------------|----------------0---------------|
|--------------------------------|--------------------------------|
|--------------------------------|--------------------------------|

| | | | | | | |
|--------2-------2-------2-------|0-------0-----------------------|
|0-------------------------------|--------------------------------|
|--------------------------------|----------------3-------3-------|
|--------------------------------|--------------------------------|

| | | | | | | |
|--------------------------------|2---------------6-------6-------|
|3-------3---------------3-------|--------------------------------|
|----------------3---------------|--------------------------------|
|--------------------------------|--------------------------------|

| | | | | | | |
|7-------7-----------------------|--------------------------------|
|----------------10------10------|9-------9-------8-------8-------|
|--------------------------------|--------------------------------|
|--------------------------------|--------------------------------|

| | | | | | | |
|--------------------------------|--------------------------------|
|7-------7-------5-------5-------|--------------------------------|
|--------------------------------|8-------8-------7-------7-------|
|--------------------------------|--------------------------------|

| | | | | | | |
|7-------7-----------------------|--------------------------------|
|----------------10------10------|9-------9-------8-------8-------|
|--------------------------------|--------------------------------|
|--------------------------------|--------------------------------|

| | | | | | | |
|--------------------------------|--------------------------------|
|7-------7-------5-------5-------|--------------------------------|
|--------------------------------|8-------8-------7-------7-------|
|--------------------------------|--------------------------------|

| | | | | | | |
|7-------------------------------|----------------0---------------|
|----------------7---------------|--------4-----------------------|
|--------------------------------|3-------------------------------|
|--------------------------------|--------------------------------|

| | | | | | | |
|--------------------------------|----------------0---------------|
|3---------------3-------3-------|--------4-----------------------|
|--------------------------------|3-------------------------------|
|--------------------------------|--------------------------------|

| | | | | | | |
|2-------2-------0-------0-------|--------------------------------|
|--------------------------------|3-------3-------2-------2-------|
|--------------------------------|--------------------------------|
|--------------------------------|--------------------------------|

| | | | | | | |
|----------------2---------------|----------------0---------------|
|0-------------------------------|--------------------------------|
|--------------------------------|3-------------------------------|
|--------------------------------|--------------------------------|

| | | | | | | |
|--------------------------------|----------------0---------------|
|3---------------3-------3-------|--------4-----------------------|
|--------------------------------|3-------------------------------|
|--------------------------------|--------------------------------|

| | | | | | | |
|2-------2-------0-------0-------|--------------------------------|
|--------------------------------|3-------3-------2-------2-------|
|--------------------------------|--------------------------------|
|--------------------------------|--------------------------------|

| | | | | | | |
|--------------------------------|--------------------------------|
|0-------0-----------------------|0-------------------------------|
|----------------0-------0-------|--------0-------2-------4-------|
|--------------------------------|--------------------------------|
Другие песни: