KinksLouie Louie Текст

0 Голосов
Main Riff/Chorus:
e|---5-5-5----------------------------5-5-5---------------------------------|
B|---5-5-5----------------------------5-5-5---------------------------------|
G|---6-6-6----7-7----9-9-9----7-7-----6-6-6-----7-7-----9-9-9-----7-7-------|
D|---7-7-7----7-7----9-9-9----7-7-----7-7-7-----7-7-----9-9-9-----7-7-------|
A|---7-7-7----5-5----7-7-7----5-5-----7-7-7-----5-5-----7-7-7-----5-5-------|
E|---5-5-5----------------------------5-5-5---------------------------------|

Verse:
e|---5----5-----------------------------------------------------------------|
B|---5----5-----------------------------------------------------------------|
G|---6----6-7-----7-9-9-9-9-9-----7-7-7-7-7---------------------------------|
D|---7----7-7-----7-9-9-9-9-9-----7-7-7-7-7---------------------------------|
A|---7----7-5-----5-7-7-7-7-7-----5-5-5-5-5---------------------------------|
E|---5----5-----------------------------------------------------------------|

lyrics:
Louie louie, oh baby, I gotta go.
Yi-yi-yi-yi-yi
Louie louie, oh baby, I gotta go.

А fine girl, who waited for me.
I catch a ship across the sea.
I sailed the ship all alone.
I wondered when I'm gonna make it home.

Louie louie, oh baby, I gotta go.
Yi-yi-yi-yi-yi
Louie louie, oh baby, I gotta go.

Three nights and days I sailed the sea.
I think of the girl constantly.
On the ship, I dream she there.
I smell the rose that's in her hair.

Louie louie, oh baby, I gotta go.
Yi-yi-yi-yi-yi
Louie louie, oh baby, I gotta go.

I see jamaican moon above.
See the girl I'm thinking of.
I take her in my arms and then
Say I'll never leave again.

Louie louie, oh baby, I gotta go.
Yi-yi-yi-yi-yi
Louie louie, oh baby, I gotta go.

Oh, I gotta go now.
Uh-huh I gotta go.
Другие песни: