King B BThe Thrill Is Gone Live Текст

0 Голосов
The Thrill Is Gone (Live)

King B.B


Lead
guitar.
Tabed By David Pickle enjoy!!!


E||--8----------------|----------------10----|--------------------10--|
B||--8----------------|--12------------------|--12~-----------12~-----|
G||--9----------------|----------------------|------------------------|
D||-------------------|----------------------|------------------------|
A||-------------------|----------------------|------------------------|
E||-------------------|----------------------|------------------------|

|--12b-12b-------------10--|--12--12b-10--12------10------10--|
|------------------12~-----|------------------12~-----10--12--|
|--------------------------|----------------------------------|
|--------------------------|----------------------------------|
|--------------------------|----------------------------------|
|--------------------------|----------------------------------|

|------------10--12h10---------10--|----------10--12h10-----11--12b-|
|--12--12--------------12--12~-12--|------12~-----------12~---------|
|--13------------------------------|--------------------------------|
|----------------------------------|--------------------------------|
|----------------------------------|--------------------------------|
|----------------------------------|--------------------------------|

|--------------19/---|--10--7~-7~-----------------x--|
|--------------------|------------10-7-----7------x--|
|--------------------|-----------------7-9---7-------|
|--------------------|-------------------------9~----|
|--------------------|-------------------------------|
|--------------------|-------------------------------|

|------10h12---10--------x----|--------10--12--12h10-----12h10-----|
|-----------------12-12~-x----|----12----------------12--------12--|
|-----------------------------|------------------------------------|
|-----------------------------|------------------------------------|
|-----------------------------|------------------------------------|
|-----------------------------|------------------------------------|

|--12r-10---------10h7-------------|-------------------7----|------------------|
|---------12~---x------7-----7-----|-------------------9----|------------------|
|------------------------7h9---7---|-------7----------------|------------------|
|--------------------------------9-|--9~-----9-7------------|------------------|
|----------------------------------|-------------9~---------|------------------|
|----------------------------------|------------------------|------------------|


|------------------|------------------|----------------------|
|------------------|------------------|------------------12--|
|------------------|------------------|--------------11------|
|------------------|------------------|----------------------|
|------------------|------------------|----------------------|
|------------------|------------------|----------------------|

|----------------10b-12--|----------------------10--|--12b-12b-------------10--|
|--12~-------------------|--12--12----------12~-----|------------------12~-----|
|------------------------|--------------------------|--------------------------|
|------------------------|--------------------------|--------------------------|
|------------------------|--------------------------|--------------------------|
|------------------------|--------------------------|--------------------------|

|--12--12b-10--12------10----------|--------------10--12--12b-12-10-----|
|------------------12~-----10--12--|--12--12--12--------------------12~-|
|----------------------------------|--13--------------------------------|
|----------------------------------|------------------------------------|
|----------------------------------|------------------------------------|
|----------------------------------|------------------------------------|

|--------10b-----19------|--19/-----10b-----7~---|------------------7----------|
|--12~-------------------|-----------------------|--10-7-----7------7----12~---|
|------------------------|-----------------------|-------7-9---7----7----------|
|------------------------|-----------------------|---------------9~-9----------|
|------------------------|-----------------------|-----------------------------|
|------------------------|-----------------------|-----------------------------|

|--10h12---------12b-12-10-----|-------------------10--12--|
|--------------------------12--|--12~---x------12----------|
|------------------------------|---------------------------|
|------------------------------|---------------------------|
|------------------------------|---------------------------|
|------------------------------|---------------------------|

|--12r-10----------10-7---------|---------------------------|
|---------12~-----------7-----7-|---------------------------|
|-------------------------7-9---|--7-----7------------------|
|-------------------------------|----9~----9-7--------7-9~--|
|-------------------------------|--------------9~---9-------|
|-------------------------------|---------------------------|

|--x------------------------|------------------------|-------------7------------|
|--x---------5/7-10-7-----7-|------------------------|-------------10-----------|
|--x------------------7-9---|--7---------------7h9---|--7--------------9b-9-7---|
|---------------------------|----9-9~------9---------|-----9------------------9-|
|---------------------------|------------------------|--------------------------|
|---------------------------|------------------------|--------------------------|

|-----------------------|-------------7--7---7------|--7~-7-------------------|
|-----------------------|-------------7--10--10--10-|-------------------------|
|-----------------7h9---|--7b-7---------------------|----------------9b-9-7---|
|--9~--------9--9-------|---------------------------|-------------9---------9-|
|-----------------------|---------------------------|-------------------------|
|-----------------------|---------------------------|-------------------------|

|-------x---------------|----------------------|----------------------|
|-------x---------------|----------------------|----------------------|
|-----------------------|----------------------|----------------------|
|--9~-------------7-9~--|--9-------------7-9~--|--9-------------7-9~--|
|---------------9-------|--------------9-------|--------------9-------|
|-----------------------|----------------------|----------------------|

|----------------------|-----x--x---x--x------------|
|----------------------|-----x--x---x--x------------|
|----------------------|--------x---x--x------------|
|--9-------------7-9~--|--9-----------------7-7-9h7-|
|--------------9-------|------------------9---------|
|----------------------|----------------------------|

|--------x---x--x------------|--------x---x--x------------|
|--------x---x--x------------|--------x---x--x------------|
|--------x---x--x------------|--------x---x--x------------|
|--9~-9--------------7-7-9-7-|--9~-9--------------7-7-9-7-|
|------------------9---------|------------------9---------|
|----------------------------|----------------------------|

|--------x---x--x------------|--------x---x--x-----------|
|--------x---x--x------------|--------x---x--x-----------|
|--------x---x--x------------|--------x---x--x-----------|
|--9~-9--------------7-7-9h7-|--9--9/-------------7-7-9--|
|------------------9---------|------------------9--------|
|----------------------------|---------------------------|

|--------x---x--x-----------|--------x---x--x-----------|
|--------x---x--x-----------|--------x---x--x-----------|
|--------x---x--x-----------|--------x---x--x-----------|
|--9--9--------------7-7-9--|--9--9--------------7-7-9--|
|------------------9--------|------------------9--------|
|---------------------------|---------------------------|

|-------------------------|-----------------------|---------------------------|
|-------------------------|-----------------------|----------------12--12--12-|
|------------------7h9-9--|--7---------9b--9-7----|------------11-------------|
|--9~-9-------9--9--------|--------------------9--|--9------------------------|
|-------------------------|-----------------------|---------------------------|
|-------------------------|-----------------------|---------------------------|

|--10b-12-----------10--12--12b|---------------12b-12-10----|
|------12-------12------12-----|-----------12------------12-|
|------------------------------|----------------------------|
|------------------------------|----------------------------|
|------------------------------|----------------------------|
|------------------------------|----------------------------|

|-------------------10b-12--12-|--10b-10-----------12b----|
|--12~-12-------12-------------|---------------12---------|
|------------------------------|--------------------------|
|------------------------------|--------------------------|
|------------------------------|--------------------------|
|------------------------------|--------------------------|

|--12h10-------------19--19--x-|--19/---14/----------------|
|--------12~-----------------x-|---------------------------|
|------------------------------|------------------9b-9-7---|
|------------------------------|---------------9---------9-|
|------------------------------|---------------------------|
|------------------------------|---------------------------|

|--------------------------|-------------7------------|
|--------------------------|-------------10-----------|
|-------------------7-9-9--|--7b-7-----------9b-9-7---|
|--9~-9-------9-9-9--------|------------------------9-|
|--------------------------|--------------------------|
|--------------------------|--------------------------|

|---------------------------|--7~-7-------7--10b-10--12-|
|-------------7--10--10--10-|--------------------10b----|
|---------------------------|---------------------------|
|--9~-9---------------------|---------------------------|
|---------------------------|---------------------------|
|---------------------------|---------------------------|

|--10b--------7--10b--10-7-|--7~-------------------|-----------------------|
|--------------------------|-----------------------|------------x----------|
|--------------------------|-----------------------|-------x----x----x-x---|
|--------------------------|----------------7-9-9~-|--x----x----x----7-9---|
|--------------------------|--------------9--------|-----------------------|
|--------------------------|-----------------------|-----------------------|

|-----------------------|-----------------------|-----------------------|
|--x----x----x----------|--x----x----x----------|--x----x----x----------|
|--x----x----x----x-x~--|--x----x----x----x-x~--|--x----x----x----x-x~--|
|--x----x----x----7-9~--|--x----x----x----7-9~--|--x----x----x----7-9~--|
|-----------------------|-----------------------|-----------------------|
|-----------------------|-----------------------|-----------------------|

|-----------------------|-----------------------|-----------------------|
|--x----x----x----------|--x----x----x----------|--x----x----x----------|
|--x----x----x----x-x~--|--x----x----x----x-x~--|--x----x----x----x-x~--|
|--x----x----x----7-9~--|--x----x----x----7-9~--|--x----x----x----7-9~--|
|-----------------------|-----------------------|-----------------------|
|-----------------------|-----------------------|-----------------------|

|-----------------------|-----------------------|-----------------------|
|--x----x----x----------|--x----x----x----------|--x----x----x----------|
|--x----x----x----x-x~--|--x----x----x----x-x~--|--x----x----x----x-x~--|
|--x----x----x----7-9~--|--x----x----x----7-9~--|--x----x----x----7-9~--|
|-----------------------|-----------------------|-----------------------|
|-----------------------|-----------------------|-----------------------|

|-----------------------|-----------------------|-----------------------|
|--x----x----x----------|--x----x----x----------|--x----x----x----------|
|--x----x----x----------|--x----x----x----x-x~--|--x----x----x----x-x~--|
|--x----x----x----7h9~--|--x----x----x----7-9~--|--x----x----x----7-9~--|
|-----------------------|-----------------------|-----------------------|
|-----------------------|-----------------------|-----------------------|

|-----------------------|-----------------------|-----------------------|
|--x----x----x----------|--x----x----x----------|--x----x----x----------|
|--x----x----x----x-x~--|--x----x----x----x-x~--|--x----x----x----x-x~--|
|--x----x----x----7-9~--|--x----x----x----7-9~--|--x----x----x----7-9~--|
|-----------------------|-----------------------|-----------------------|
|-----------------------|-----------------------|-----------------------|

|-----------------------|-----------------------|-----------------------|
|--x----x----x----------|--x----x----x----------|--x----x----x----------|
|--x----x----x----x-x~--|--x----x----x----x-x~--|--x----x----x----------|
|--x----x----x----7-9~--|--x----x----x----7-9~--|--x----x----x----7h9~--|
|-----------------------|-----------------------|-----------------------|
|-----------------------|-----------------------|-----------------------|

|-------------------|----10-7-10-7-------------------------------|
|--x----------------|--------------10-7-10-7---------------------|
|--x----------------|------------------------9-7-9-7-------------|
|--x----------------|--------------------------------9-7-9-7-----|
|-------------------|----------------------------------------9-7-|
|-------------------|--------------------------------------------|

|-------------------|------------------||
|-------------------|------------------||
|-------------------|------------------||
|-------------------|------------------||
|--9~---------------|------------------||
|-------------------|------------------||
Другие песни: