KansasWhen The World Was Young Текст, аккорды

0 Голосов
-KANSAS

-When the World Was Young
-Somewhere to Elsewhere

This is my 3th song from this album,unfortunatelly, it's I had time only for the intro...

If you have some questions: tttommy@zoznam.sk


e---------------------------------------------------------------------
H---------------------------------------------------------------------
G-----0-0-1-2~------------------------------2-------2---:I------------
D---2~------------0-0-1-2~----------------2---------2---:I------------
A---------------2~-----------------------------3^0--------------------
E----------------------------0~--3-345~-------------------------------


E A.....E....(D...A)
e---------------------------------------------------------------------
H---------------------------------------------------------------------
G----1---------------------------------x-x---1-1----------------------
D----2---------------------------------7-7---2-2----------------------
A----2---------------------------------7-7---2-2----------------------
E----0-(bass guitar plays something)---5-5---0-0-(1st verse)----------


...and think it's enough for the intro...
Другие песни: