KaneMy Hearts Desire Текст

0 Голосов
Riff1

e-0----0------0----0-0-0-0-|
B-3----6------1----1-1-1-1-|
G-2----5------2----2-2-2-2-|
D-2----5------2----2-2-2-2-|
A-0----0------0----0-0-0-0-|
E--------------------------|
Asus4 Csus4/A Am

Riff2
e-0----0------0----0-0-0-0-|
B-3----8------1----1-1-1-1-|
G-2----7----0-2----2-2-2-2-|
D-2----7----0-3----3-3-3-3-|
A-0----0------3----3-3-3-3-|
E--------------------------|
Asus4 Dsus4/A F7M

Riff3
e-0--0--0/-----------|
B-1--1--1/3---3--3---|
G-2--2--2/4---4--4---|
D-3--3--3/5---5--5---|
A-3--3--3/5---5--5---|
E--------------------|
F7M G6

[Intro]
Riff1 Riff2
Riff1 Riff2 Riff3

G F
She knows the words are cold
Riff1
And the heart's on fire_
G F
Trapped by these walls of steel
Riff1
In a world on fire__
G F
Crossed by a word so true
G F
Torn by her eyes so blue__
Riff1 Riff2 Riff3
And my hearts'_ desire___

G F
Run from the darkest moon
Riff1
And take me higher____
G F
Just let it go, let it flow Let it speak till you know
Riff1
That I'm on fire
G F
And turn when you cannot see
G F
The truth here inside of me

[Chorus]
F G Dsus2 Bbsus2
And I__I__I__ who oh oh I see you when you're here whohoho_____
F G Dsus2 Bbsus2
And I__I__I__ who oh oh I see you when you're here who oh oh______

Riff1 Riff2 Riff3

G F
So tear down these walls of pain
Riff1
And take it higher
G F
So let it come, let it come Just let it speak from the heart
Riff1
Coz I'm on fire
G F
Run when you cannot stay
G F (tick)
Just run when you cannot stay


[Chorus]
F G Dsus2 Bbsus2
Coz I__I__I__ who oh oh I see you when you're here whohoho_____
F G Dsus2 Bbsus2
And I__I__I__ who oh oh I see you when you're here who oh oh__
F G Dsus2 Bsus2
I__ So let it come down, just let it come down Oh I___
F G Dsus2 Bsus2
and oh I who oh oh I see you when you're here Who oh oh_____oh_

Riff1 Riff2
I_____ Yeah yeah yeah yeah yeah
Riff1 Riff2 Asus4 (strum)

Chords:
Asus4 x02230
Csus4/A x05560
Am x02210
Dsus4/A x07780
F7M x33210
G6 x55430
F 133211
G 355433 / 320033
Dsus2 x57755 / xx0230
Bbsus2 x13311
Другие песни: