KamikazeErt Текст

0 Голосов
URL:an unsigned band from philippines

song:ert
artist:kamikaze
tabbed by:leander m.

intro:D5-A5-B5-F#-G5-A5

guitar I(2x)
E|-----------------------------------------------------------
B|-----------------------------------------------------------
G|-----------------------------------------------------------
D|-----------------------------------------------------------
A|--5-5--5-5-5--5-5-5--5-5-5--5------------------------------
E|------------------------------7-7--7-7-7--7-7-7--7-7-7--7--
. . . . . . . . . . . . . . . . . . . . . . . .
------------------------------------------------------------|
------------------------------------------------------------|
------------------------------------------------------------|
------------------------------------------------------------|
------------------------------------------------------------|
--3-3--3-3-3--3-3-3--3-3-3--3--5-5--5-5-5--5-5-5--5-5-5--5--|
. . . . . . . . . . . . . . . . . . . . . . . .
guitar II
E|---------------------------------------| -------|
B|---------------------------------------| -------|
G|--6h7---7---6---7----6h7----7---6---7--|(2x)--6h7--|
D|------7---7---7---7------7----7---7----| -------|
A|---------------------------------------| -------|
E|---------------------------------------| -------|

Interlude:D5-B5-G5-A5

E|----------------------------------------------------|
B|----------------------------------------------------|
G|----------------------------------------------------|
D|--7-7-7-7-------7-------7--9-9-9-9-------9-------9--|
A|--5-5-5-5-------5-------5--9-9-9-9-------9-------9--|
E|--0-0-0-0--0-0--0--0-0--0--7-7-7-7--0-0--7--0-0--7--|
. . . . . . . .
E|----------------------------------------------------|
B|----------------------------------------------------|
G|----------------------------------------------------|
D|--5-5-5-5-------5-------5--7-7-7-7-------7-------7--|
A|--5-5-5-5-------5-------5--7-7-7-7-------7-------7--|
E|--3-3-3-3--0-0--3--0-0--3--5-5-5-5--0-0--5--0-0--5--|
. . . . . . . .
guitar I:D5-B5-G5-A5
guitar II:(riff I)
E|-----------------------------------------|
B|-----------------------------------------|
G|-----------------------------------------|
D|-4-4h5-7--4-4h5-7-4-4h5-7--7-7-7--4h5----|(repeat)
A|--------------------------------------5--|
E|-----------------------------------------|

stanza
riff I

riff II:P-pause
E|------------ ----------------------------|
B|------------ ----------------------------|
G|------------ ----------------------------|
D|--7-7-7-7p-- --9-9-9-9p-9-----9-9-----9--|
A|--5-5-5-5p--(2x)--9-9-9-9p-9-9-9-9-9-9-9-9--|
E|--0-0-0-0p-- --7-7-7-7p-7-7-7-7-7-7-7-7--|
. . . . . . . . . . . .
E|------------ ----------------------------|
B|------------ ----------------------------|
G|------------ ----------------------------|
D|--5-5-5-5p-- --7-7-7-7p-7-----7-7-----7--|
A|--5-5-5-5p--(2x)--7-7-7-7p-7-7-7-7-7-7-7-7--|
E|--3-3-3-3p-- --5-5-5-5p-5-5-5-5-5-5-5-5--|
. . . . . . . . . . . .

riff II
E|-------------------- ---------------------|
B|-------------------- ---------------------|
G|----------------6h7- ----------------6h7--|
D|--7--7-7-7-7--7----- --9--9-9-9-9--9------|
A|--5--5-5-5-5--5-----(2x)--9--9-9-9-9--9------|(2x)
E|--0--0-0-0-0--0----- --7--7-7-7-7--7------|
. . . . . . . .
E|-------------------- ---------------------|
B|-------------------- ---------------------|
G|----------------6h7- ---------------------|
D|--5--5-5-5-5--5----- --7--7-7-7-7--7-6h7--|
A|--5--5-5-5-5--5-----(2x)--7--7-7-7-7--7------|(2x)
E|--3--3-3-3-3--3----- --5--5-5-5-5--5------|

Interlude II:D5-B5-G5-D5
tabbed by:leander m. !! end !!
Другие песни: