КактусЯ оставлю только свет Текст

0 Голосов
Intro
e|-----------------------------------------------------------------------|
B|-8---8---8----7---7---7----1-----3---3-----5------7---7----------------|
G|---0---0--------0---0----------0----0-------------0---0----------------|
D|-----------------------------------------------------------------------|
A|-7------------5--------------3----------------3------------------------|
E|-----------------------------------------------------------------------|

Куплет
e|------------------------------------------------------------------------|
B|--8----7-----1----3-----5---7-------------------------------------------|
G|------------------------------------------------------------------------|
D|------------------------------------------------------------------------|
A|--7----5-----3----------3-----------------------------------------------|
E|------------------------------------------------------------------------|

Проигрыш
e|--------------------------------------------------------------------|
B|-8--8--10--8----7--7--8--------1---3------5---7---------------------|
G|-----------------------------7--------------------------------------|
D|--------------------------------------------------------------------|
A|-7----------------5---------------3-----------3---------------------|
E|--------------------------------------------------------------------|

Концовка
e|---------------------------------------------------------------------|
B|--8---7---5---4---0--------------------------------------------------|
G|---------------------------------------------------------------------|
D|---------------------------------------------------------------------|
A|--7---5---3---2------------------------------------------------------|
E|---------------------------------------------------------------------|

e|----------------------------------------------------------------------|
B|--8---7---5---4-------------------------------------------------------|
G|----------------------------------------------------------------------|
D|----------------------------------------------------------------------|
A|--7---5---3---2--/----------------------------------------------------|
E|----------------------------------------------------------------------|

Я оставлю только свет
В ваших пламенных сердцах,
Только дайте мне ответ
Почему вы все в слезах?

Я оставлю только снег
Белоснежный как и я,
Я оставлю яркий свет
Навсегда внутри тебя

Белый снег в душе твоей не растает,
Яркий след в душе твоей не погаснет

Я оставлю только свет...
Я оставлю только свет...
Другие песни: