JurisYour love Текст

0 Голосов
Intro: 
E|--10--12--12/14-----------------------------|
B|-----------------15--14--12--14/15--10--10--|
G|---------------------14-----------------12--|
D|--------------------------------------------|
A|--------------------------------------------|
E|--------------------------------------------|

E|--10--12--12/14----------12--14--15------|
B|-----------------15--14----------15--15--|
G|---------------------14------------------|
D|-----------------------------------------|
A|-----------------------------------------|
E|-----------------------------------------|

E|-----2--2-----------------------|
B|--3-----3--3--2-----2--3--------|
G|--------------2--4-----2--2--2--|
D|--------0-----------------------|
A|--------------0--------2--------|
E|-----------------------------3--|

E|-----0--2-----------2--3-----|
B|--3-----3--3--2--5-----3--3--|
G|--------------2--------------|
D|--------0--------------------|
A|--------------0--------------|
E|-----------------------3-----|

D A Bm G (2X)

Verse:
E|--------------------------------|
B|-----------------2--3--3--0--0--|
G|-----2-----2--2-----------------|
D|--0-----4--2--------------------|
A|-----------0--------------------|
E|-----------------------3--------|
D A G
You're the one who never let me sleep

E|-----------------------------------|
B|--3--3--3--3--2--2--2--2--2--3--0--|
G|--2--2--2--2--2--2--2--2--2--2--0--|
D|--0--------------------------------|
A|--------------0--------------------|
E|--------------------------3-----3--|
D A G
Through my mind and through my soul, You touch my lips

E|--------------------------------|
B|-----------------2--3--3--0--0--|
G|-----2-----2--2-----------------|
D|--0-----4--2--------------------|
A|-----------0--------------------|
E|-----------------------3--------|
D A G
You're the one that I can't wait to see

E|-----------------------------------|
B|-----3--3--3--3--2--2--2--2--3--0--|
G|--2--2--2--2--2--2--------2--2--0--|
D|-----0-----------------------------|
A|-----------------0-----------------|
E|--------------------------3-----3--|
D A G
When you're here by my side, I'm in ecstacy

Refrain:
E|-----------------------------|
B|-----3--3--2--3--2--------0--|
G|-----4--4--2--2--2--2--2--0--|
D|-----------------------------|
A|--2--------0-----------------|
E|-----------------------3-----|
Bm A G
I'm all alone without you

E|-----------------------2--2--------|
B|-----3--3--3--2--3--5--------3--3--|
G|-----4--4--4--2--------------------|
D|-----------------------------------|
A|--2-----------0--------------------|
E|--------------------------3--------|
Bm A G
But days are dark without the glimpse of you

E|-------------------------------------|
B|-------------------3--3--------3--3--|
G|----------7-----2--------2--2--2--2--|
D|--4h5h7------4-----------------------|
A|-------------------------------------|
E|--0-------------2-----------3-----3--|
Em F#m G
Now that you come into my life I feel complete

E|--------------------------------0--0--|
B|--------------------3--3--3--3--3--2--|
G|-----------7-----2--2--2-----2-----2--|
D|--4--4--5-----4--------------------2--|
A|-----------------------------------0--|
E|-----0-----------2-----------3--------|
Em F#m G
The flowers bloom, the morning shines and I can see

E|--------------5--|
B|--2--3--5--------|
G|-----------2-----|
D|-----------------|
A|-----------------|
E|-----------------|

Chorus:
E|-----5--3--2--0-----|
B|--3--2-----------3--|
G|--2--------------2--|
D|--0-----------------|
A|-----0-----------2--|
E|--------------------|
D A Bm
Your love is like the sun

E|-----5--3--2--0-----|
B|--3--3-----------3--|
G|-----4-----------2--|
D|-----------------0--|
A|--------------------|
E|-----3--------------|
G D
That lights up my whole world

E|--------------------------------3--|
B|--3--3--------2--3--5--3--------3--|
G|--------2--2--------------------4--|
D|--------------------------------5--|
A|-----0-----------2-----------5-----|
E|--------------------------3--------|
A Bm G
I feel the warmth inside

E|-----2--3--2--0--------|
B|--3--2-----------3--3--|
G|--2--2-----------2--2--|
D|--0--------------------|
A|-----0-----------2-----|
E|-----------------------|
D A Bm
Your love is like a river

E|-----5--3--2--0-----|
B|--3--3-----------3--|
G|-----4-----------2--|
D|-----------------0--|
A|--------------------|
E|-----3--------------|
G D
That flows down through my veins

E|--------------------------------3--|
B|--3--3--------2--3--5--3--------3--|
G|--------2--2-----2--------------4--|
D|--------------------------------5--|
A|-----0-----------2-----------5-----|
E|--------------------------3--------|
A Bm G
I feel the chill inside

Interlude:
E|--2--3--5--------------2--------|
B|--3--3--7--7--5--3--5--3--3--3--|
G|-----------7--6--------------4--|
D|--------0-----------------------|
A|--------------0--------2--------|
E|-----------------------------3--|

E|--2--3--5------------------|
B|--3--3--7--7--5--5h7p5--3--|
G|-----------7--6---------4--|
D|--------0------------------|
A|--------------0------------|
E|------------------------3--|

D A Bm G (2x)

Verse:
E|--------------------------------|
B|-----------------2--3--3--0--0--|
G|-----2-----2--2-----------------|
D|--0-----4--2--------------------|
A|-----------0--------------------|
E|-----------------------3--------|
D A G
Everytime I hear music played

E|--------------------------------|
B|-----3--3--3--3--2--2--3-----0--|
G|--2--2--2--2--2--2--------2--0--|
D|--------------------------------|
A|-----0-----------0--------------|
E|-----------------------------3--|
D A G
Reminds me of the things that we've been through

E|--------------------------------|
B|-----------------2--3--3--0--0--|
G|-----2-----2--2-----------------|
D|--0-----4--2--------------------|
A|-----------0--------------------|
E|-----------------------3--------|
D A G
In my mind I can't believe it's true

E|-----------------------------2-----|
B|-----3--3--3--3--3--2--3--5-----3--|
G|--2--2--2--2--------2-----------0--|
D|-----0-----------------------------|
A|--------------------0--------------|
E|--------------------------------3--|
D A G
But in my heart, the reality is you

Refrain:
E|-----------------------------|
B|-----3--3--2--3--2--------0--|
G|-----4--4--2--2--2--2--2--0--|
D|-----------------------------|
A|--2--------0-----------------|
E|-----------------------3-----|
Bm A G
I'm all alone without you

E|--------5--3--2-----0--2--2--------|
B|-----3--------2--3--------0--3--3--|
G|-----------------------------------|
D|-----------------------------------|
A|--2-----------0--------------------|
E|--------------------------3--------|
Bm A G
But days are dark without the glimpse of you

E|-----5--3--2--0-----3--2--0--------0-----|
B|--3--------------3-----------3--------3--|
G|--------------------------------2-----2--|
D|-----------------------------------------|
A|-----------------------------------------|
E|-----0--------------2-----------3-----3--|
Em F#m G
Now that you come into my life I feel complete

E|--------------------------------0--0--|
B|--------------------3--3--3--3--3--2--|
G|-----------7-----2--2--2-----2-----2--|
D|--4--4--5-----4--------------------2--|
A|-----------------------------------0--|
E|-----0-----------2-----------3--------|
Em F#m G
The flowers bloom, the morning shines and I can see

E|--------------|
B|--2--3--5--2--|
G|--2--4--6--2--|
D|--------------|
A|--------------|
E|--------------|

Chorus:
(Follow same tabs and chords as 1st chorus)

D A Bm
Your love is like the sun
G D
That lights up my whole world
A Bm G
I feel the warmth inside
D A Bm
Your love is like a river
G D
That flows down through my veins
A Bm G
I feel the chill inside

E|--------------------2--2--2--5--5--3--5--|
B|--3--3--2--3--3--3--3--3--2--3--3--3--3--|
G|--2--2--2--2--2--4--2-----2--------4-----|
D|--0-----------------0-----2--------------|
A|--------0--2--------------0--2-----------|
E|-----------------3-----------------3-----|

Your love, your love, your love

(Repeat Chorus)

D A Bm
Your love is like the sun
G D
That lights up my whole world
A Bm G
I feel the warmth inside
D A Bm
Your love is like a river
G D
That flows down through my veins
A Bm G
I feel the chill inside

E|--------------------2--2--2--5--5--3--5--|
B|--3--3--2--3--3--3--3--3--2--3--3--3--3--|
G|--2--2--2--2--2--4--2-----2--------4-----|
D|--0-----------------0-----2--------------|
A|--------0--2--------------0--2-----------|
E|-----------------3-----------------3-----|

Outro:
E|--------0----------------------------------0--------|
B|--3--3--2--2p0-----2--3-----------------0--2--2--3--|
G|--4--4--2-------2-----2--4--2--0-----------2-----2--|
D|--------2----------------------------0-----2-----0--|
A|--------0-------------2-----------2--------0--------|
E|--3-------------2--------------3--------------------|

G A F#m Bm G A D
Другие песни: