JunoonJugalbandi Текст

0 Голосов
Band: Junoon

Song: Jugalbandi
Album: Azaadi
Songwriter: Salman Ahmad

Riff 1.

Play this once.

e---------------------------
B-2---3---3----5---3---3----
G-----------0------------0--
D--0----0--------0---0------
A---------------------------
E---------------------------


e------------------------------------------------------
B-7---8---8-----5-----7---7---3---5---5----2--3---3----
G-----------0---------------0------------0-------------
D---0---0---------0----0--------0---0-------0---0------
A------------------------------------------------------
E------------------------------------------------------

Now play this twice.

e---------------------------
B-2---3---3----5---3---3----
G-0----------0-0----------0-
D-0-0----0-----0-0---0------
A---------------------------
E---------------------------


e------------------------------------------------------
B-7---8---8-----5-----7---7---3---5---5----2-----3-----
G-0---------0---0-----------0-0----------0-0-----0-----
D-0-0---0-------0---0--0------0--0---0-----0--0--0-----
A------------------------------------------------------
E------------------------------------------------------

Interlude

e------5-----5-----5-----5-----5--------------------
B----5-----5-----5-----5-----5---5------------------
G--7-----7-----7-----7-----7------------------------
D---------------------------------------------------
A---------------------------------------------------
E---------------------------------------------------


e------5-----5-----5-----5----5----------------------
B----5-----5-----5-----5----5---5--------------------
G--6-----6-----6-----6----6--------------------------
D----------------------------------------------------
A----------------------------------------------------
E----------------------------------------------------


e------5-----5-------------
B----5-----5-----5---------
G--5-----5-----5-----------
D--------------------------
A--------------------------
E--------------------------

e------3-----3-------------
B----5-----5-----5---------
G--5-----5-----5-----------
D--------------------------
A--------------------------
E--------------------------


e------0-----0--------1--0---------
B----3-----3----3----------3--2----
G--3-----3----3--------------------
D----------------------------------
A----------------------------------
E----------------------------------

After playing the interlude, play Riff one twice. After you have played
Riff one twice, the Bass kicks in. I guess i'll submit the bass tabs
seperately when i have the time to put 'em down. As far as the solo goes,
i'm totally lost.

Tabbed by : Kamran Khan.
Другие песни: