Jules GaryMad World (На русском) Текст

0 Голосов
Каподастр на первом ладу.

Intro:
Am D
e|---0-----------------2-------2---|
B|-1---0-1---0---------------------|
G|---------2---0-------2-------2---|
D|---------------4-0-------0-------|
A|-0-------------------------------|
E|---------------------------------|

Am D
e|---0-----------------------------|
B|-1---0-1---0-1-3-----3-------3---|
G|---------2-----------2-------2---|
D|-----------------0-------0-------|
A|-0-------------------------------|
E|---------------------------------|

Куплет:
Am C
e|-------------------------|
B|----1-----1-----1-----1--|
G|----2-----2-----0-----0--|
D|-------------------------|
A|-0-----0-----3-----3-----|
E|-------------------------|
Я смотрю: вокруг-знакомые лица,

G D
e|-------------------------|
B|----3-----3-----3-----3--|
G|----0-----0-----2-----2--|
D|-------------0-----0-----|
A|-------------------------|
E|-3-----3-----------------|
Всё тот же город, всё те же лица.

Am C
Их погони с первым голосом птицы
G D
Тянут в пропасть, гонят в пропасть.
Am C
Стёкла глаз закрыли слёзы от солнца
G D
Взгляды пустые. Нет эмоций.
Am C
Уходя в себя, топлю своё горе.
G C
«Завтра не будет, завтра не будет»,

Припев:
Am D
e|-------------------------|
B|----1-----1-----3-----3--|
G|----2-----2-----2-----2--|
D|-------------0-----0-----|
A|-0-----0-----------------|
E|-------------------------|
Я смотрю смеюсь и плачу, плачу и

Am D
e|-------------------------|
B|----1-----1-----3-----3--|
G|----2-----2-----2-----2--|
D|-------------0-----0-----|
A|-0-----0-----------------|
E|-------------------------|
смеюсь. Сны в которых я боялся, больше не боюсь

Am D
Сказать об этом сложно,
Am
Не легче и принять.
D
Если люди мчат по кругу,
D
Это очень, очень…

Am D
e|---0-----------------2-------2---|
B|-1---0-1---0---------------------|
G|---------2---0-------2-------2---|
D|---------------4-0-------0-------|
A|-0-------------------------------|
E|---------------------------------|
Безумный мир

Am D
e|---0-----------------------------|
B|-1---0-1---0-1-3-----3-------3---|
G|---------2-----------2-------2---|
D|-----------------0-------0-------|
A|-0-------------------------------|
E|---------------------------------|
Безумный мир

Куплет:
Am
Дети верят в день, когда им
C
Станет лучше.
G D
В День Рожденья, в День Рождения
Am C
И, мне кажется, ребёнок должен
G D
Просто слушать. Сидеть и слушать.
Am C
В школу я ходил, волнуясь сильно:
G D
Нет знакомых. Незнакомый.
Am C
Я задал вопрос, но мой учитель
G D
Смотрит мимо и не видит.

Припев:
Am D Am
Я смотрю смеюсь и плачу, плачу и смеюсь,
D Am
Сны в которых я боялся, больше не боюсь
D
В лучших грёзах я с отрадой
Am
Покидаю этот мир.
D
Сказать об этом сложно,
Am
Не легче и принять.
D
Если люди мчат по кругу,

Это очень, очень…
Am D
Безумный мир, безумный мир
Другие песни: