Jules GaryMad World Текст

0 Голосов
Intro:
e:-----9-------------------------------9------------------------------------|
B:--10---9-10-7-9--------7-----7--10-----9-10----9-10-12------12------12----|
G:----------------9-8----8-----8--------------11--------------11------11----|
D:--------------------9-----9-----------------------------9--------9--------|
A:--------------------------------------------------------------------------|
E:--------------------------------------------------------------------------|

Verse:
All around me are familiar faces....
e:-----------------------------------------------------------------------|
B:-----------------------------------------------------------12------12--|
G:-----10-------10--------14-------14------------------------11------11--|
D:-----11-------11--------14-------14-------13-------13---9-------9------|
A:--9--------9--------12-------12-----------14-------14------------------|
E:--------------------------------------12-------12----------------------|

Chorus:
And I find it kind of funny....
e:-----------------------------------------------------------------------|
B:---------------------12------12----------------------12------12--------|
G:-----10------10------11------11------11------11------11------11--------|
D:-----11------11---9-------9----------10------10---9-------9------------|
A:--9-------9-----------------------9-------9----------------------------|
E:-----------------------------------------------------------------------|

Mad world....
e:-----9-------------------------------9------------------------------------|
B:--10---9-10-7-9--------7-----7--10-----9-10----9-10-12------12------12----|
G:----------------9-8----8-----8--------------11--------------11------11----|
D:--------------------9-----9-----------------------------9--------9--------|
A:--------------------------------------------------------------------------|
E:--------------------------------------------------------------------------|

And now for the bass/cello part:
Children waiting for the day they feel good
G:----------------------------------------------|
D:----------------------------------------------|
A:----------------------0-------4---------0-----|
E:--2-------------------------------------------|

Happy birthday, Happy birthday
G:------------------------------|
D:------------------------------|
A:-----7---------------6--------|
E:------------------------------|
Другие песни: