Juan Dela Cruz BandProject bass Текст

0 Голосов
Intro: 
G|---------|---------|---|
D|---------|---------|---|
A|---------|-34-5-67-|---|
E|-3-5-6-7-|---------|-0-| then rest 3 bars

Verse 1:
G|---------------|
D|---------------|
A|---7---5-7-5---|
E|-0---7-------7-| 4x

G|---------------|
D|---7---5-7-5---|
A|-0---7-------7-|
E|---------------| 2X

G|---------------|---------------|
D|---------------|---------------|
A|---7---5-7-5---|---7---5-7-5---|
E|-0---7-------7-|-0---7-------0-|

G|---------------|
D|---9---7-9-7---|
A|-----9-------9-|
E|-7-------------| 2x

G|---------------|
D|---------------|
A|---7---5-7-5---|
E|-0---7-------7-|

G|---------|---------|
D|---------|---------|
A|---------|-34-5-67-|
E|-3-5-6-7-|---------|

Verse 2: Repeat Verse 1 pattern except last bar, to be played as:
G|----------|
D|----------|
A|-34-5-----|
E|----------|

Chorus 1:
G|------------|------------|--------------|---|
D|------------|------------|--------------|---|
A|-33-------7-|-33-------7-|-33-------7---|---|
E|----3-5-7---|----3-5-7---|----3-5-7-----|-0-| rest 3 bars

Verse 3:
G|---------------|
D|---------------|
A|---7---5-7-5---|
E|-0---7-------7-| 4x

G|---------------|
D|---7---5-7-5---|
A|-0---7-------7-|
E|---------------| 2X

G|---------------|---------------|
D|---------------|---------------|
A|---7---5-7-5---|---7---5-7-5---|
E|-0---7-------7-|-0---7-------0-|

G|---------------|
D|---9---7-9-7---|
A|-----9-------9-|
E|-7-------------| 2x

G|---------------|
D|---------------|
A|---7---5-7-5---|
E|-0---7-------7-|

G|---------|---------|-------4-|-56-7-89-|
D|---------|---------|-4-5-7---|---------|
A|---------|-34-5-67-|---------|---------|
E|-3-5-6-7-|---------|---------|---------|

Adlib: Repeat Verse 2 pattern

Chorus 2: Repeat Chorus 1 pattern

Verse 4: Repeat Verse 2 pattern

Chorus 3:
G|------------|------------|------------|
D|------------|------------|------------|
A|-33-------7-|-33-------7-|-33-------7-|
E|----3-5-7---|----3-5-7---|----3-5-7---| 2x

G|---------|---------|-------4-|-56-7-89-|
D|---------|---------|-4-5-7---|---------|
A|---------|-34-5-67-|---------|---------|
E|-3-5-6-7-|---------|---------|---------|
Другие песни: