Jua MusicAll Around The Mulberry Bush Текст

0 Голосов
All around the Mulberry Bush

Jua Music
this is a weird song

no intro just right into the verse
e|-------------------------------------------------|
B|-------------------------------------------------|
G|---------------------------------8-------8-------|
D|---7-----7----7-------7--------7-------7---------|G1
A|-0---0h6----0----0h6-------0h6-----0h6-----------|
E|-------------------------------------------------|

Guitar 2
e|-------------------------------------------------|
B|-------------------------------------------------|
G|-----------------------------8-------8-----------|
D|---7-----7----7-----7------7-------7-------------|
A|-0-----6----0-----6------6-------6---------------|
E|-----5----------5------5-------5-----------------|

thats it
Другие песни: