John FruscianteWind Up Space Текст, аккорды

0 Голосов
-=-=-=-=-=-=-=-=-=-=-=-=-=-=-=-=-=-=-=-

John Frusciante - Wind Up Space 1:59
-=-=-=-=-=-=-=-=-=-=-=-=-=-=-=-=-=-=-=-
L & M: John Frusciante
Track 4 From:
To Record Only Water For Ten Days
2001 Niandra Lades BMI Music.
Transcription By Leandro Koren.
leandro_koren@yahoo.com.ar
-=-=-=-=-=-=-=-=-=-=-=-=-=-=-=-=-=-=-=-

Intro: Asus2 Csus2 G X 2

E|---------------------------------|---------------------------------|
B|-------0-------------------------|-------0-------------------------|
G|-------------0-------------------|-------------0-------------------|
D|-------------------2--p0-0-2-2---|-------------------2--p0-0-2---2-|
A|-0-------0-----------------------|-3-------3-----------------------|
e|---------------------------------|---------------------------------|

E|---------------------------------|---------------------------------|
B|-------0-------------------------|-------0-------------------------|
G|-------------0-------------------|-------------0-------------------|
D|-------------------2--p0-0-2-2---|---------------------------------|
A|-0-------0-----------------------|-3-------3-----------------------|
e|---------------------------------|---------------------------------|

E|---------2---2-2---2-2---2-------|-0-------0---0-0---0-0---0---0---|
B|---------3---3-3---3-3---3---3-0-|-0-------0---0-0---0-0---0---0-0-|
G|-0-------0---0-0---0-0---0---0-0-|-0-------0---0-0---0-0---0---0-0-|
D|-0-------0---0-0---0-0---0---0-0-|-2-------2---2-2---2-2---2---2---|
A|---------------------------------|-3-------3---3-3---3-3---3---3---|
e|-3-------3---3-3---3-3---3-------|---------------------------------|

With Riff:

Asus2 Csus2
I can't wait
Asus2 Csus2 G Csus2
I can't wait for the time to break
G Csus2
Use it for a motorbike
G
You'll spin right out of sight
Csus2
You'll never have been where you'll be
G Csus2
You go back to the faceless ride ahhhh

With Riff Again:

Asus2 Csus2
Wind up space
Asus2 Csus2 G Csus2
Wind up space to go place to place
G Csus2
Dream that you died
G
It takes you out of your mind
Csus2
The black walls of space take me all the way


Chords:

Asus2 Csus2 G
E|--0--|--0--|--2--|
B|--0--|--0--|--3--|
G|--2--|--X--|--0--|
D|--2--|--2--|--0--|
A|--0--|--3--|--2--|
e|--X--|--X--|--3--|


-=-=-=-=-=-=-=-=-=-=-=-=-=--=-=-=-=-=--=-=-=-=-=-=-=-=-=-=-=-=-=--=-=-=-=-=--
Produce By John Frusciante
Mixed By Jimmy Boyled
Mixing Assisted By Brian Grimmel
Mastered By Vlado Meller At Sony Music Studio, New York.
-=-=-=-=-=-=-=-=-=-=-=-=-=--=-=-=-=-=--=-=-=-=-=-=-=-=-=-=-=-=-=--=-=-=-=-=--
Другие песни: