John FruscianteThe Will To Dead Текст

0 Голосов
#----------------------------------PLEASE NOTE--------------------------------#

#This file is the author's own work and represents their interpretation of the#
#song. You may only use this file for private study, scholarship, or research.#
#-----------------------------------------------------------------------------#
#-- File created with Instab - http://www.pconline.com/~smcarey/instab.html --#
#-----------------------------------------------------------------------------#

Author/Artist: John Frusciante
Title: The Will to Dead
Album: The Will to Dead
Transcribed by: Jorge Gil
Email: jorgegils@hotmail.com


--------------------------------------------------------|---------------------|
-9---9-9-9-9-----7--7---------5---5-5-5-----7--7--------|---------------------|
-9---9-9-9-9-----8--8---------6---6-6-6-----8--8--------|---------------------|
-9---9-9---9-----9--9---------7---7---7-----9--9--------|---------------------|
-7---7-----------9--9---------7-------------9--9--------|---------------------|
--------------------------------------------------------|---------------------|
Intro x4


--------------------------------------------------------|---------------------|
-9---9-9-9-9-----7--7---------5---5-5-5-----7--7--------|---------------------|
-9---9-9-9-9-----8--8---------6---6-6-6-----8--8--------|---------------------|
-9---9-9---9-----9--9---------7---7---7-----9--9--------|---------------------|
-7---7-----------9--9---------7-------------9--9--------|---------------------|
--------------------------------------------------------|---------------------|
Verse x7

And they're thought to be lies
But we saw them, saw them
We looked right in their eyes
Right at them, at them
Pinning space to the world
We're slaughtered, slaughtered
Not a sound to be heard
We're awful...


--------------------------------------------------------|---------------------|
-9---9-9-9-9-----7--7---------5---5-5-5-----------------|---------------------|
-9---9-9-9-9-----8--8---------6---6-6-6-----6--6--6-----|---------------------|
-9---9-9---9-----9--9---------7---7---7-----7--7--7-----|---------------------|
-7---7-----------9--9---------7-------------7--7--7-----|---------------------|
--------------------------------------------5--5--5-----|---------------------|
Pre-Chorus x1

... awful


-------------------------------------------------------|---------------------|
-------------------------------------------------------|---------------------|
-6-------------------------------4--4--7--7------------|---------------------|
-7-------------------------------5--5--7--7------------|---------------------|
-7---7---7---7---7---7-----------5--5--5--5------------|---------------------|
-5---5---5---5---5---5-----------3--3------------------|---------------------|
Chorus x4

And have you seen... How they run... Out of gas
They beat the pain... They sing in the rain
Endless and formless... They fly to the end
And back to the... Beginning again

Verse

Have you put them aside
Your crazy thoughts and dreams
No they're a part of me
And they all mean one thing
The will to deat is what keeps me alive
It's one step away, step away
Limitations are set
Only then can we go all the way, all the way


Chorus

And have you seen how the cars when they pass
They come your way... Then they're speeding away
Coming to you and then going away
But for them nothing changed


Solo (same as verse)
Другие песни: