John FruscianteRamparts Текст

0 Голосов
John Frusciante, Ramparts.

Tabbed by Leandro Koren, leandro_koren@yahoo.com.ar.

-=-=-=-=-=-=-=-=-=-=-=-=-=-=-=-=-
John Frusciante - Ramparts 1:11
-=-=-=-=-=-=-=-=-=-=-=-=-=-=-=-=-
Track 8 From:
To Record Only Water For Ten Days
2000 Niandra Lades BMI Music.
Tabbed By Leandro Koren.
leandro_koren@yahoo.com.ar
-=-=-=-=-=-=-=-=-=-=-=-=-=-=-=-=-

Part A:

E|--------------------------------------------------------------------------|
B|14------------14--------13----------13----------11---------11-------------|
G|--------15------------15--------13----------13--------11---------11-------|
D|----15-----------15--------13----------13---------11---------11-----------|
A|13---------13-----------11--------11-------------9--------9---------------|
E|--------------------------------------------------------------------------|

Play this 2 times then play:

Part B:

E|------------------13------------13--------4-------4----11-----------11-------|
B|-9---------9------------13------------13-----4------4--------11-----------11-|
G|------9-------9-----13------------13-------5------5------11-----------11-----|
D|----9--------9--15---------15------------6-----6-----13--------13------------|
A|13-----13--------------------------------------------------------------------|
E|-----------------------------------------------------------------------------|

Play that twice then start from top.

The Order Is: A A B B A A B B A A B B


-=-=-=-=-=-=-=-=-=-=-=-=-=--=-=-=-=-=--=-=-=-=-=-=-=-=-=-=-=-=-=--=-=-=-=-=--
Produce By John Frusciante
Mixed By Jimmy Boyled
Mixing Assisted By Brian Grimmel
Mastered By Vlado Meller At Sony Music Studio, New York.
-=-=-=-=-=-=-=-=-=-=-=-=-=--=-=-=-=-=--=-=-=-=-=-=-=-=-=-=-=-=-=--=-=-=-=-=--
:: Ultimate Guitar Archive ::
http://www.ultimate-guitar.com
Другие песни: