J:МорсСупермарио Текст, аккорды

0 Голосов
Intro: Am F }x4
e|----------------------------------------|
b|----------------------------------------|
G|----------------------------------------|
D|-14-14-12-14-14-12-14-14-12-14-14-17-17-|
A|-12-12-10-12-12-10-12-12-10-12-12-15-15-|
E|----------------------------------------|
A5

e|----------------------------------------|
b|----------------------------------------|
G|----------------------------------------|
D|-12-12-10-12-12-10-12-12-10-12-12-12-10-|
A|-8--8--7--8--8--7--8--8--7--8--8--8--7--|
E|----------------------------------------|
F5

Куплет:
Am
Wi-Fi в трамвае, холодная пицца
F
Едем без остановок, не можем не злиться
Bb B
За окнами рвутся в клочки миллионы сердец
E
Им не спится
Am
Драконы на проводах
F
Растворяют сигнал от меня до тебя
Bb B
Тихо тает и ты остаешься один на один
E
С зазеркальем моим

Припев:
Dm E Am F
Я Супермарио, я Супермарио
Dm E
Я на подушечках пальцев твоих
Am
Я ошибка сценария
Dm E Am F
Я Супермарио, я Супермарио
B E
Между коленок лежали дрожали ладошки

Куплет:
Am
Война форматов и воздух искрится
F
Умереть за тебя, для тебя возродиться
Bb B
Едва ли ты вспомнишь меня, пролистаешь и все повторится
E
Я жду оваций
Am
Глупый моноспектакль, я не выпью тебя
F
Только несколько капель
Bb B
И ты навсегда по ту сторону дня
E
Не достанешь меня

Припев:
Dm E Am F
Я Супермарио, я Супермарио
Dm E
Я на подушечках пальцев твоих
Am
Я ошибка сценария
Dm E Am F
Я Супермарио, я Супермарио
B E
Между коленок лежали дрожали ладошки усталые

Intro: x2
e|----------------------------------------|
b|----------------------------------------|
G|----------------------------------------|
D|-14-14-12-14-14-12-14-14-12-14-14-17-17-|
A|-12-12-10-12-12-10-12-12-10-12-12-15-15-|
E|----------------------------------------|
A5

e|----------------------------------------|
b|----------------------------------------|
G|----------------------------------------|
D|-12-12-10-12-12-10-12-12-10-12-12-12-10-|
A|-8--8--7--8--8--7--8--8--7--8--8--8--7--|
E|----------------------------------------|
F5

Припев:
Dm E Am F
Я Супермарио, я Супермарио
Dm E
Я на подушечках пальцев твоих
Am
Я ошибка сценария
Dm E Am F
Я Супермарио, я Супермарио
B E
Между коленок лежали дрожали ладошки усталые

Intro: x4
e|----------------------------------------|
b|----------------------------------------|
G|----------------------------------------|
D|-14-14-12-14-14-12-14-14-12-14-14-17-17-|
A|-12-12-10-12-12-10-12-12-10-12-12-15-15-|
E|----------------------------------------|
A5

e|----------------------------------------|
b|----------------------------------------|
G|----------------------------------------|
D|-12-12-10-12-12-10-12-12-10-12-12-12-10-|
A|-8--8--7--8--8--7--8--8--7--8--8--8--7--|
E|----------------------------------------|
F5

e|---------------------------|
b|---------------------------|
G|---------------slide down--|
D|-14-14-12-14-14------------|
A|-12-12-10-12-12------------|
E|---------------------------|
A5
Другие песни: