Jj72Brother Sleep Текст

0 Голосов
_______ _______ ______ ___

| | / /
| | / /
| | / /
| | / /
__/ ___/ / /___ by gerry

I am the fan. Best band ever, met them outside
limelight in belfast, got photos and the rest.
And coat signed by mark. BUT NO HILARY, WHO
WAS AWAY DRINKIN WITH HER COUSIN. :-> Got album
signed and lost it on way home. I've tabbed the
whole album, here's one of the songs.
If you have anything to say bout my tab, u can
e-mail, or talk to my messenger thing:
************i_am_jj72@hotmail.com****************
BROTHER SLEEP

Intro and first verse:
e---------------------------------------
B-1---1---0---0----1---1----0-----0-----
G---0---0---0---0----0---0-----0----0---
D---------------------------------------
A---------------------------------------
E---------------------------------------

e---------------------------------------
B-1---1---0---0----1---1----1-----1-----
G---2---2---0---0----2---2-----2----2---
D---------------------------------------
A---------------------------------------
E---------------------------------------

e---------------------------------------
B-1---1---0---0----1---1----0-----0-----
G---0---0---0---0----0---0-----0----0---
D---------------------------------------
A---------------------------------------
E---------------------------------------

e-------------------------------------0-
B-1---1---0---0----1---1----1-----1---1-
G---2---2---0---0----2---2-----2------2-
D---------------------------------------
A---------------------------------------
E---------------------------------------

For the other verses and the chorus. just play
these chords in this order over and over again.
It sounds brilliant if you can get the timing
and the stroking right, especially striking
the F before the chorus.

e---0---0---0---0---0---0---0-------------------
B---1---0---1---0---1---0---1-------------------
G---0---0---0---0---2---2---2-------------------
D---2---2---2---2---2---2---3-------------------
A---3---3---3---3---0---0---3-------------------
E---3---3---3---3---x---x---1-------------------

Sounds brilliant if you can sing like a girl!!!!!

The bass during the chorus sounds class!!!!!!!!!!
Другие песни: