Jim CroceIll Have To Say I Love You Текст

0 Голосов
I'll have to say I love You

by Jim Croce
Transcribed by Steven Jaranilla (sjvhynce@yahoo.com)


Intro & Verse

e|-------0-----0--------|-------4----7-4------|------2-----5-2------|
B|-------2-----2-----2--|-------5--------5----|------3---------3----|
G|----1------1-------1--|----4----4--------4--|----2---2---------2--|
D|----------------------|---------------------|---------------------|
A|--0-------------0-----|--4------------------|--2------------------|
E|---------0------------|---------------------|---------------------|

e|--------1-------0-----|
B|------3-------3-------|
G|----2-------1---------|
D|--0-------2-----------|
A|----------------------|
E|----------------------|

Chorus

e|-------2-----2--------|------3------3-------|------0-----0-----0--|
B|-------3-----3--------|------1------1-------|------2-----2-----2--|
G|----2------2-----2----|----2------2------2--|----4-----4----------|
D|--0------0-----0------|--1------1------1----|---------------------|
A|----------------------|---------------------|--4------------4-----|
E|----------------------|---------------------|--------0------------|

|-------2--------2----------0------0----------0------0-------------|
|-------2--------3----------2------2---2------0------0---0---------|
|--------------2----2-----2------2-----2----1------1-----1---------|
|-----------0------------------------------------------------------|
|----4-----------------0-------------0----2------------2-----------|
|--2---------------------------0----------------0------------------|

|------2------2-------------0-------0--------|
|------3------3----3--------2-------2----2---|
|----2------2------2------2-------2------2---|
|--0-------------0---------------------------|
|---------0-------------0--------------0-----|
|-------------------------------0------------|

That's It... Enjoy!
Другие песни: