Jets To BrazilChinatown Текст

0 Голосов
Band: Jets To Brazil

Song: Chinatown
________________________________________________________

I tabbed this by ear, so you'll have to trust me on it.

If you're going to steal this for your site, or someone
else's, at least be nice and let me know about it.

If you make use of this tab, then please rate/comment on
it, it doesn't take long and i enjoy the attention. I just
want to know if people are actually using them.

Drop D Tuning.
________________________________________________________

SONG STRUCTURE

Enter with the verse at 00:16.

8 X Verse
4 X Chorus
8 X Alternate Verse
12 X Chorus
8 X Alternate Verse
12 X Chorus
1 X Breakdown
________________________________________________________


VERSE

1 2 3 4 * * * *
G|----------------|----------------|
D|----------------|----------------|
A|----------------|----------------|
D|0---0---0-0-0---|9---9---9-9-9---|

* * * * * * * *
G|----------------|----------------|
D|----------------|----------------|
A|----------------|----------------|
D|0---0---0-0-0---|2---2---5-5-7---|

CHORUS

* * * * * * * *
G|----------------|----------------|
D|----------------|----------------|
A|----------------|----------------|
D|0---0---7-7-----|5-5-5-5-5-5-5---|

Variations.

* * * * * * * *
G|----------------|----------------|
D|----------------|----------------|
A|----------------|----------------|
D|0---0---7-7-----|5-5-5-5-2-5-2---|

* * * * * * * *
G|----------------|----------------|
D|----------------|----------------|
A|----------------|----------------|
D|0---0---7-7-----|5-5---9-7-9-7---|

* * * * * * * *
G|----------------|----------------|
D|----------------|----------------|
A|----------------|7-7-9-9-10------|
D|0---0---7-7-----|----------------|

* * * * * * * *
G|----------------|----------------|
D|----------------|----------------|
A|----------------|5-5-7-7-5-5-----|
D|0---0---7-7-----|----------------|

ALTERNATE VERSE

1 2 3 4 * * * *
G|----------------|----------------|
D|0---0---0-0-0---|----------------|
A|----------------|----------------|
D|----------------|9---9---9-9-9---|

* * * * * * * *
G|----------------|----------------|
D|0---0---0-0-0---|----------------|
A|----------------|----------------|
D|----------------|2---2---5-5-7---|

BREAKDOWN

1 2 3 4 * * * *
G|----------------|----------------|
D|----------------|----------------|
A|----------------|------------7975|
D|0---0---000-0000|0---0---575-----|

* * * * * * * *
G|----------------|----------------|
D|----------------|----------------|
A|----------------|------------7975|
D|0---0---000-0000|0---0---575-----|

* * * * * * * *
G|----------------|----------------|
D|----------------|----------------|
A|----------------|----------------|
D|0---0---9-------|0---0-----5-7-9-|

* * * * * * * *
G|----------------|----------------|
D|----------------|----------------|
A|----------------|----------------|
D|0---0---9-------|0---0-----5-7-9-|

* * * * * * * *
G|----------------|----------------|
D|----------------|----------------|
A|----------------|----------------|
D|0---0---9-------|0---0-----5-7-9-|

* * * * * * * *
G|----------------|----------------|
D|----------------|----------------|
A|----------------|----------------|
D|0---0---9-------|0---0-----5-7-9-|

* * * * * * * *
G|----------------|----------------|
D|----------------|--------14------|
A|----------------|----------14----|
D|0---0---9-------|0---0-------14/-|

* * * * * * * *
G|----------------|----------------|
D|----------------|----------------|
A|----------------|----------------|
D|0---0---9-------|0---0-----5-7-9-|

* * * * * * * *
G|----------------|----------------|
D|----------------|--------14------|
A|----------------|----------14----|
D|0---0---9-------|0---0-------14/-|
____________________________________________________________
Feel free to contact me with comments, advice, miscellaneous
advertising material, requests for songs to be tabbed, etc.
----------------------------------------------------------
Transcribed by Matt - [elsewhere_for_eight_minutes@hotmail.com]
----------------------------------------------------------
Другие песни: