Jaymes YoungMoondust Текст

0 Голосов
D D Bm Bm
e|5--------5-------5--------5-------2--------2------2--------2---|
b|-----7----------------7----------------3---------------3-------|
g|---7-------7--------7-------7--------4------4--------4-------4-|
d|7------7---------7------7---------4------4--------4------4-----|
a|---------------------------------------------------------------|
e|---------------------------------------------------------------|

F#m F#m E E
e|--------------------------------------------------------------|
b|2--------2-------2--------2-------0-------0-------0-------0---|
g|-----2----------------2----------------1---------------1------|
d|---4-------4--------4-------4--------2------2--------2------2-|
a|4------4---------4------4---------2------2--------2------2----|
e|--------------------------------------------------------------|

Intro: D Bm F#m E

D Bm F#m E
Oooohh... Oohhh....Ohh.... Oohhh..

D Bm
I'm building this house on the moon
F#m E
Like a lost astronaut
D Bm
Looking at you like a star
F#m E
From a place the world forgot

D
And there's nothing
Bm F#m
That I can do
E
Except bury my love for you

D
The brightness of the sun
Bm
Will give me just enough
F#m
To bury my love
E
In the moondust
D
I long to hear your voice
Bm
But still i made the choice
F#m
To bury my love
E
In the moondust

D
Nothing can breath
Bm
In the space
F#m
Colder than
E
The darkest sea
D
I have dreams
Bm
About the days
F#m
Driving through
E
Your sunset breeze

D
And the first thing
Bm F#m
That I will do
E
Is bury my love for you

D
The brightness of the sun
Bm
Will give me just enough
F#m
To bury my love
E
In the moondust
D
I long to hear your voice
Bm
But still i made the choice
F#m
To bury my love
E
In the moondust

F#m
I'm a castaway
Bm
Men reap what they sow
D
And I say what I know
E
To be true
F#m
I'm living far away
Bm
On the face of the moon
D E
I buried my love to give the world to you

D
The brightness of the sun
Bm
Will give me just enough
F#m
To bury my love
E
In the moondust
D
I long to hear your voice
Bm
But still i made the choice
F#m
To bury my love
E
In the moondust
Другие песни: