Jansch BertSummer Heat Текст

0 Голосов
Tabbed by Jamie Phillips (jamiephillips22@hotmail.com)


Artist: Bert Jansch
Track title: Summer Heat
Album: Live at the 12 Bar
Tuning: DADGBE (dropped D)

I've tabbed the live version of this as I don't have any other version. I don't even know
which of his albums it's on! It's a really great tune though and simple to play. Although
this tab looks long it's really just 3 basic sections that have slight variations
throughout; I thought it reasonable to try and convey these variations. As usual work
with the recording to get the song structure down. Enjoy!

Rhythm: 4/4

Intro:
E||------------------------------|------------------------------|
B||---------------3--------------|---------------3--------------|
G||---------------2--------------|---------------2--------------|
D||----------0----2-----------2--|----------0----2-----------2--|
A||-------0--------------3-------|-------0--------------3-------|
D||--0---------------------------|--0---------------------------|



E------------------------------|---------------------------------|
B---------------3---------0----|---------------3-----------------|
G---------------2------0-------|---------------2------0-------0--|
D----------0----2--------------|----------0----2-----------------|
A-------0-----------------3----|-------0-----------------3-------|
D--0---------------------------|--0------------------------------|



E------------------------------|---------------------------------|
B---------------3--------------|---------------3-----------------|
G---------------2-----------0--|---------------2------0-------0--|
D----------0----2--------------|----------0----2-----------------|
A-------0--------------3-------|-------0-----------------3-------|
D--0---------------------------|--0------------------------------|


Verse:
E---------------------------------|---------------------------------|
B---------------3------3----------|---------------3------3----------|
G---------------2-----------------|---------------2--------------0--|
D----------0----2--------------0--|----------0----2-----------------|
A-------0-----------------3-------|-------0-----------------3-------|
D--0------------------------------|--0------------------------------|



E---------------------------------|------------------------------|
B---------------3-----------------|---------------3------3--0----|
G---------------2------0-------0--|---------------2--------------|
D----------0----2-----------------|----------0----2--------------|
A-------0-----------------3-------|-------0-----------------3----|
D--0------------------------------|--0---------------------------|



E---------------------------------|---------------------------------|
B---------------3-----------------|---------------3-----------------|
G---------------2------0-------0--|---------------2------0----------|
D----------0----2-----------------|----------0----2--------------2--|
A-------0-----------------3-------|-------0-----------------3-------|
D--0------------------------------|--0------------------------------|



E------------------------------|---------------------------------|
B---------------3------3--0----|---------------3-----------------|
G---------------2--------------|---------------2------0-------0--|
D----------0----2--------------|----------0----2-----------------|
A-------0-----------------3----|-------0-----------------3-------|
D--0---------------------------|--0------------------------------|



E---------------------------------|---------------------------------|
B---------------3-----------------|---------------3-----------------|
G---------------2------0----------|---------------2------0----------|
D----------0----2--------------0--|----------0----2--------------0--|
A-------0-----------------3-------|-------0-----------------3-------|
D--0------------------------------|--0------------------------------|



E---------------------------------|---------------------------------|
B---------------3-----------------|---------------0-----------------|
G---------------2------0-------0--|----------0-------------------0--|
D----------0----2-----------------|-------0-------------------------|
A-------0-----------------3-------|--2-------------------3b-2-------|
D--0------------------------------|---------------------------------|



E---------------------------------|---------------------------------|
B---------------3-----------------|---------------3-----------------|
G---------------2------0-------0--|---------------2------0-------0--|
D----------0----2-----------------|----------0----2-----------------|
A-------0-----------------3-------|-------0-----------------3-------|
D--0------------------------------|--0------------------------------|



E---------------------------------|---------------------------------|
B---------------3-----------------|---------------0-----------------|
G---------------2------0-------0--|----------0-------------------0--|
D----------0----2-----------------|-------0-------------------------|
A-------0-----------------3-------|--2-------------------3b-2-------|
D--0------------------------------|---------------------------------|



E---------------------------------|------------------------------|
B---------------3-----------------|---------------3--------------|
G---------------2------0-------0--|---------------2------0-------|
D----------0----2-----------------|----------0----2--------------|
A-------0-----------------3-------|-------0-----------------3----|
D--0------------------------------|--0---------------------------|



E------------------------------|---------------------------------|
B---------------3--------------|---------------3-----------------|
G---------------2------0-------|---------------2------0----------|
D----------0----2--------------|----------0----2--------------0--|
A-------0-----------------3----|-------0-----------------3-------|
D--0---------------------------|--0------------------------------|


Chorus:
E---------------------------------|---------------------------------|
B---------------------------------|---------------------------------|
G-------0------0------------------|-------0------0------------------|
D-----------------3----0-------0--|-----------------3----0-------0--|
A-------2-----------------3-------|-------2-----------------3-------|
D--0--------------3-------3-------|--0--------------3-------3-------|



E---------------------------------|---------------------------------|
B---------------------------------|---------------------------------|
G-------0------0------------------|-------0------0------------------|
D-----------------3----0-------0--|-----------------3----0-------0--|
A-------2-----------------3-------|-------2-----------------3-------|
D--0--------------3-------3-------|--0--------------3-------3-------|


Repeat from Chorus:once more
E---------------------------------|------------------------------|
B---------------3-----------------|---------------3--------------|
G---------------2------0-------0--|---------------2------0-------|
D----------0----2-----------------|----------0----2--------------|
A-------0-----------------3-------|-------0-----------------3----|
D--0------------------------------|--0---------------------------|



E---------------------------------|---------------------------------|
B---------------3-----------------|---------------0-----------------|
G---------------2------0-------0--|----------0----------------------|
D----------0----2-----------------|-------0----------------------0--|
A-------0-----------------3-------|--2-------------------3b-2-------|
D--0------------------------------|---------------------------------|



E---------------------------------|---------------------------------|
B---------------3-----------------|---------------3-----------------|
G---------------2------0-------0--|---------------2------0----------|
D----------0----2-----------------|----------0----2--------------0--|
A-------0-----------------3-------|-------0-----------------3-------|
D--0------------------------------|--0------------------------------|


Instrumental:
E-------------------------1p-0-----|--0-------------------------------|
B--------------/5------0--------0--|-------3p-0-----------------------|
G----------------------------------|---------------2------------------|
D----------0---/3------------------|---------------0h---2p-0-------0--|
A-------0--------------------------|--------------------------3-------|
D--0-------------------------------|----------------------------------|



E-----------------------------------|---------------------------------|
B----------3------------------------|---------------3-----------------|
G----------1p-0---------------------|---------------2------0-------0--|
D-------0--------3p-2----0-------0--|----------0----2-----------------|
A--5------------------------3-------|-------0-----------------3-------|
D--5--------------------------------|--0------------------------------|



E---------------------------------|-------------------------1p-0-----|
B---------------3-----------------|--------------/5------0--------0--|
G---------------2------0----------|----------------------------------|
D----------0----2--------------0--|----------0---/3------------------|
A-------0-----------------3-------|-------0--------------------------|
D--0------------------------------|--0-------------------------------|



E--0-------------------------------|-----------------------------------|
B-------3p-0-----------------------|----------3------------------------|
G---------------2------------------|----------1p-0---------------------|
D---------------0h---2p-0-------0--|-------0--------3p-2----0-------0--|
A--------------------------3-------|--5------------------------3-------|
D----------------------------------|--5--------------------------------|



E---------------------------------|---------------------------------|
B---------------3------3----------|---------------3-----------------|
G---------------2-----------------|---------------2------0----------|
D----------0----2--------------2--|----------0----2--------------0--|
A-------0-----------------3-------|-------0-----------------3-------|
D--0------------------------------|--0------------------------------|



E---------------------------------|---------------------------------|
B---------------0-----------------|---------------3-----------------|
G----------0----------------------|---------------2------0----------|
D-------0----------------------0--|----------0----2--------------0--|
A--2-------------------3b-2-------|-------0-----------------3-------|
D---------------------------------|--0------------------------------|

Fade out with main pattern
Back to Verse: but include this:
E---------------------------------|-------------------------3----0--||
B---------------3-----------------|---------------3-----------------||
G---------------2------0----------|---------------2------0----------||
D----------0----2--------------0--|----------0----2-----------------||
A-------0-----------------3-------|-------0-----------------3-------||
D--0------------------------------|--0------------------------------||

TAB guide: / = slide from below

h = hammer on, p = pull off

b = bend (in this case a pre-bend down to the next note)
Другие песни: