Jansch BertRunning From Home Текст

0 Голосов
Running From Home - Bert Jansch


For this tab I have included timings along the top- so if a note apears
under the 2, for example, then that note is played on the second beat of
that bar. Along the bottom I have included some fingering for the right
hand:

p=thumb
i=index
m=middle

The song is in first position and the bass note at fret 1 should be fretted
with the thumb.

Fit a capo at fret 4 to play this.


1 2 3 4 1 2 3 4 1 2 3 4 1 2 3 4
1|------------------|--0---------------|------------------|------------------|
2|------------0-----|--------3---1-----|--0---------0-----|--1-----0---------|
3|--------0H2-------|------------------|--------0H2-------|------------2-----|
4|------0-------0---|------0-------0---|------0-------0---|------0-------0---|
5|------------------|------------------|------------------|------------------|
6|--3-------3-------|--1-------1-------|--3-------3-------|--1-------1-------|
p p i m p m p i p i p m p i m p m p m p i p
p p p p p (continue fingering
in similar way)

1 2 3 4 1 2 3 4 1 2 3 4 1 2 3 4
1|------------------|------------------|------------------|------------------|
2|------------------|--------0---1-----|--0---------0-----|--1-----0---------|
3|--0---------0-----|--2---------------|--------0H2-------|----2-------2-----|
4|------0-0H2---0---|------0-------0---|------0-------0---|------0-----------|
5|------------------|------------------|------------------|--------------0---|
6|--3-------3-------|--1-------1-------|--3-------3-------|--1-------1-------|


1 2 3 4 1 2 3 4 1 2 3 4 1 2 3 4
1|------------------|------------------|------------------|--0---------------|
B|------------------|--------0---1-----|--0---------0-----|--------3---1-----|
3|--0---------0-----|--2---------------|--------0H2-------|------------------|
4|------0-0H2---0---|------0-------0---|------0-------0---|------0-------0---|
5|------------------|------------------|------------------|------------------|
6|--3-------3-------|--1-------1-------|--3-------3-------|--1-------1-------|

1 2 3 4 1 2 3 4 1 2 3 4 1 2 3 4
1|------------------|------------------|------------------|------------------|
2|--0---------0-----|--1-----0---------|------------------|--------0---1-----|
3|--------0H2-------|------------2-----|--0---------0-----|--2---------------|
4|------0-------0---|------0-------0---|------0-0H2---0---|------0-------0---|
5|------------------|------------------|------------------|------------------|-
6|--3-------3-------|--1-------1-------|--3-------3-------|--1-------1-------|

1 2 3 4 1 2 3 4 1 2 3 4 1 2 3 4
1|------------------|--0---------------|------------------|------------------|
2|--0---------0-----|--------3---1-----|--0---------0-----|--1-----0---------|
3|--------0H2-------|------------------|--------0H2-------|----2-------2-----|
4|------0-------0---|------0-------0---|------0-------0---|------0-----------|
5|------------------|------------------|------------------|--------------0---|
6|--3-------3-------|--1-------1-------|--3-------3-------|--1-------1-------|

Enjoy!

Tabbed by LithiumGod (lithiumgod@hotmail.com)
Другие песни: