Jane Air9,80665 Текст

0 Голосов
Riff 1: x5
1|---------------------------------
2|---------------------------------
3|-----9---9-----9-----9-------9---
4|-----9---9-----9-----9-------9---
5|-----7---7-----7-----7-------7---
6|-0-0---0---0-0---0-0---0-0-0-----

PM----------------|
1|---------------
2|---------------
3|-----9-------9-
4|-----9-------9-
5|-----7-------7-
6|-0-0---0-0-0---

Theme 1: x4
1|-------------------------------------------
2|-------------------------------------------
3|--12--12--12--12--12--12--12--12--12-------
4|--12--12--12--12--12--12--12--12--12-------
5|--10--10--10--10--10--10--10--10--10-------
6|-------------------------------------------

Riff 1: x2 PM
1|---------------------------------
2|---------------------------------
3|-----9---9-----9-----9-------9---
4|-----9---9-----9-----9-------9---
5|-----7---7-----7-----7-------7---
6|-0-0---0---0-0---0-0---0-0-0-----

PM----------------|
1|---------------
2|---------------
3|-----9-------9-
4|-----9-------9-
5|-----7-------7-
6|-0-0---0-0-0---

Theme 1: x2
1|-------------------------------------------
2|-------------------------------------------
3|--12--12--12--12--12--12--12--12--12-------
4|--12--12--12--12--12--12--12--12--12-------
5|--10--10--10--10--10--10--10--10--10-------
6|-------------------------------------------

Theme 2: x2
1|-----------------------------
2|-----------------------------
3|--14--14--14--14--14--14--14--
4|--14--14--14--14--14--14--14--
5|--12--12--12--12--12--12--12--
6|------------------------------

Theme 1: x4 PM
1|-------------------------------------------
2|-------------------------------------------
3|--12--12--12--12--12--12--12--12--12-------
4|--12--12--12--12--12--12--12--12--12-------
5|--10--10--10--10--10--10--10--10--10-------
6|-------------------------------------------

Brake:

Theme 1: x2
1|-------------------------------------------
2|-------------------------------------------
3|--12--12--12--12--12--12--12--12--12-------
4|--12--12--12--12--12--12--12--12--12-------
5|--10--10--10--10--10--10--10--10--10-------
6|-------------------------------------------

Theme 2: x2
1|-----------------------------
2|-----------------------------
3|--14--14--14--14--14--14--14--
4|--14--14--14--14--14--14--14--
5|--12--12--12--12--12--12--12--
6|------------------------------

Riff 2: x4
1|-----------------------------------
2|-----------------------------------
3|-----------------------9-9-9-9-9-9-
4|-9------7-----9------7-9-9-9-9-9-9-
5|---10-9---9-7---10-9---7-7-7-7-7-7-
6|-----------------------------------

Theme 3:
1|------------------
2|------------------
3|-----9-9-9-9-9-9--
4|---7-9-9-9-9-9-9--
5|-9---7-7-7-7-7-7--
6|------------------

Riff 2: x2
1|-----------------------------------
2|-----------------------------------
3|-----------------------9-9-9-9-9-9-
4|-9------7-----9------7-9-9-9-9-9-9-
5|---10-9---9-7---10-9---7-7-7-7-7-7-
6|-----------------------------------

Theme 3:
1|------------------
2|------------------
3|-----9-9-9-9-9-9--
4|---7-9-9-9-9-9-9--
5|-9---7-7-7-7-7-7--
6|------------------

Riff 2: x2
1|-----------------------------------
2|-----------------------------------
3|-----------------------9-9-9-9-9-9-
4|-9------7-----9------7-9-9-9-9-9-9-
5|---10-9---9-7---10-9---7-7-7-7-7-7-
6|-----------------------------------

Theme 3:
1|------------------
2|------------------
3|-----9-9-9-9-9-9--
4|---7-9-9-9-9-9-9--
5|-9---7-7-7-7-7-7--
6|------------------

Riff 1: x4 PM
1|---------------------------------
2|---------------------------------
3|-----9---9-----9-----9-------9---
4|-----9---9-----9-----9-------9---
5|-----7---7-----7-----7-------7---
6|-0-0---0---0-0---0-0---0-0-0-----

PM----------------|
1|---------------
2|---------------
3|-----9-------9-
4|-----9-------9-
5|-----7-------7-
6|-0-0---0-0-0---

Riff 3: x4
1|----------------
2|----------------
3|----------------
4|-9-0-5-7-0-4-0--
5|----------------
6|-----------------

Theme 4:
1|------------------------------------------------------------------
2|------------------------------------------------------------------
3|------------------------------------------------------------------
4|-5-----4-----5-----4-----5-4-5-----4-----5-----4-----------5-7-9--
5|---7-7---5-5---7-7---5-5-------7-7---5-5---7-7---5-5-5-7-9--------
6|------------------------------------------------------------------

Riff 2: x4
1|-----------------------------------
2|-----------------------------------
3|-----------------------9-9-9-9-9-9-
4|-9------7-----9------7-9-9-9-9-9-9-
5|---10-9---9-7---10-9---7-7-7-7-7-7-
6|-----------------------------------

Riff 1: x2 PM
1|---------------------------------
2|---------------------------------
3|-----9---9-----9-----9-------9---
4|-----9---9-----9-----9-------9---
5|-----7---7-----7-----7-------7---
6|-0-0---0---0-0---0-0---0-0-0-----

PM----------------|
1|---------------
2|---------------
3|-----9-------9-
4|-----9-------9-
5|-----7-------7-
6|-0-0---0-0-0---

Coda: x N раз
1|-----------------------
2|-----------------------
3|-----------------------
4|------9----------------
5|-7----7----7--7----7---
6|-0---------0--0----0---
Другие песни: