JamDown In The Tube Station At Midnight Текст

0 Голосов
Down in a tube station at midnight (The Jam) 
Tabbed by vincesmyth.

Bruce Foxton on bass, probably a Rickenbacker

Printing note: adjust page margins to fit on single page

INTRO, over drums

G ||----------------------5-7-5------||
D ||.-------5-7-5------7--------7---.||
A ||.-0-7---------7--5--------------.||
E ||---------------------------------||

VERSE

G |---------------12-----------------------5-7-5--------------------|
D |-----5-7-5-------12--------5-7-5------7-------7------------------|
A |-0-7-------7-5-----12--0-7-------7-5-----------------------------|
E |------------------------------------------------0-2-3-3--0-2-3-3-|

G |------------------5-7-5--------------------5-7-5------------|
D |------5-7-5-----7-------7------5-7-5-----7-------7----------|
A |-0-7--------7-5-----------0-7--------7-5--------------------|
E |---------------------------------------------------3-3--3-3-|

BRIDGE
(after first time only)
G ||-----------------------------------||----------|
D ||.---------------------2-2-3-3-4-4-.||----------|
A ||.-----2-2-3-3-4-4-5-5-------------.||----------|
E ||--5-5------------------------------||-3-3--3-3-|

CHORUS
x3
G ||-------------------------------------||---------------------------------|
D ||.-------------0--------2--------4---.||---------------------------------|
A ||.----2----2-2---2--3-3---3--5-5---5-.||---------2-2-2-2-3-3-3-3-5-5-5-5-|
E ||-3-3---3-----------------------------||-3-3-3-3-------------------------|

OUTRO

after 8-bar drum fill, cycle the ascending run from either BRIDGE or CHORUS
Другие песни: