Jackson MichaelBlack Or White Parody Текст

0 Голосов
Ok this is off of In Living Color, I've looked all over

this site and cant find this tab, so I did it by ear. Its
all correct.
tabbed by : Clay Asher

E -x----------------------------|
B -x----------------------------|
G -6----------------------------|
D -7----------2-----------------|
A -7----------2-----------------|
E -5---//---0-----------------|


E ---5-5-5--4--2-2---5--5-5-5--4--2-2--5--|
B ---5-5-5--5--5-5---5--5-5-5--5--5-5--4--|
G ---4-4-4--4--4-4---4--4-4-4--4--4-4--6--|
D ----------------------------------------|
A ----------------------------------------|
E ----------------------------------------|

E ----------4---|
B -2----2---5---|
G -2----2---4---|
D -2----2-------|
A --------------|
E --------------|

E ---5-5-5--4--2-2---5--5-5-5--4--2-2--5--|
B ---5-5-5--5--5-5---5--5-5-5--5--5-5--4--|
G ---4-4-4--4--4-4---4--4-4-4--4--4-4--6--|
D ----------------------------------------|
A ----------------------------------------|
E ----------------------------------------|

E -------------------|
B --5---2------------|
G --4---2------------|
D --4---2--2---------|
A --2------2---------|
E ---------0---------|

E ---5-5-5--4--2-2---5--5-5-5--4--2-2--5--|
B ---5-5-5--5--5-5---5--5-5-5--5--5-5--4--|
G ---4-4-4--4--4-4---4--4-4-4--4--4-4--6--|
D ----------------------------------------|
A ----------------------------------------|
E ----------------------------------------|
Другие песни: