Jack JohnsonF Stop Blues Текст

0 Голосов
TITLE: F Stop Blues

ARTIST: Jack Johnson
ALBUM: Brushfire Fairy Tales
TABBED BY: Jonathan Edwards

Intro and Chorus
e-----0---------------------------------------------------------|
B-----0h2-0-----------------------------------------------------|
G--1------------------------------------------------------------|
D-----------------4h6p4-----------7-----------------------------|
A---------------6------0----7h9---9p7------9--------------------|
E-0----------4--------5-----------7-7h9---7--------------------|

Verse
e---------------------------------------------------------------|
G---------------------------------------------------------------|
B-----4-------------4-------------------------------------------|
D---2--4h6p6-----------6---------------7---------7--------------|
A----------------6--------0------7h9------0--9----7-------------|
E-0------------4----------5------------5------------------------|
-
Solo
e---------------------------------------------------------------|
B--2/5--------7-9--------------7-9------------------------------|
G-------6---------9----/6-9--------9----------------------------|
D---------6-----------------6-----------------------------------|
A-------------------------------------9-11-9-7------------------|
E---------------------------------------------------------------|

Lyrics
hermit crabs and cowry shells
crush beneath his feet
as he comes towards you
hes waving at you
lift him up to see
what you cant see
he begins his focusing
hes aiming at you
and now he has cutaways from memories and
close ups of anything
that he has see or even dreamed
and now hes finished focusing
he's imagining lightning striking seasickness
away from here

Look who's laughing now
that you've wasted
how many years and you've barely even tasted
anything remotely close to
everything youve boasted about
look whos crying now

Driftwood floats after years of erosion
incoming tides touches roots to expose them
quicksand steals my shoes
clouds bring the F stop blues

Look who's laughing now
that you've wasted
how many years and you've barely even tasted
anything remotely close to
everything you've boasted about
look who's crying now
Другие песни: