InterpolHands Away Текст

0 Голосов
Interpol

song: Hands Away
album: Turn on the Bright Lights

Dropped D Tuning

E |--------------------------------------------------------------|
B |--------------------------------------------------------------|
G |--------------------------------------------------------------|
D |------10-----10-----10-----10-----10-----10-----10-----10-----|
A |--------------------------------------------------------------|
D |--7-------7-------7-------7-------7-------7-------7-------7---|

E |-------------------------------------------------------------------|
B |-------------------------------------------------------------------|
G |------0-------0-------0-------0-------0-------0-------0-------0----|
D |-------------------------------------------------------------------|
A |-------------------------------------------------------------------|
D |--2-------2-------2-------2-------2-------2-------2-------2--------|

E |-------------------------------------------------------------------|
B |-------------------------------------------------------------------|
G |-------------------------------------------------------------------|
D |------3-------3--------3-------3-------3-------3------3-------3----|
A |-------------------------------------------------------------------|
D |--0-------0-------0-------0-------0-------0-------0-------0--------|

E |---------------------------------------------------------------|
B |---------------------------------------------------------------|
G |---------------------------------------------------------------|
D |-------9-----10-----10-----10-----10-----10------10-----10-----|
A |---------------------------------------------------------------|
D |--7-------7-------7-------7-------7-------7-------7-------7----|

i think it's correct, awesome song, awesome band
jason
kanz311@msn.com
Другие песни: