IncubusNo Scrubs Текст

0 Голосов
Band: Incubus

Song: No Scrubs (TLC Cover)
Album: Live on 120 Minutes (http://www.angelfire.com/goth/btab/)
Tabbed By: Chris Frazier

Chords:
E|---|-5-|---|---|
B|-5-|-5-|---|-0-|
G|-7-|-5-|---|-2-|
D|-7-|-7-|-2-|-2-|
A|-5-|-7-|-2-|-0-|
E|---|-5-|---|---|
D A E A2

Verse:
Riff A Riff B Riff C Riff D
E|-------1-|-------0-|---------|-3--1p0---0-|
B|-----1-1-|-----1-1-|-------3-|--------3---|
G|---2-----|---2-----|-----1-1-|------------|
D|-0-------|---------|---2-----|------------|
A|---------|-0-------|-2-------|------------|
E|---------|---------|---------|------------|

Chorus:
D, A, E, A2

Song Structure:
They tune up and strum a few chords... then... 2nd DJ thing...
Riff A
Riff B |= Play this
Riff C |= 4 times
Riff B /

Riff A
Riff B |= Play this
Riff C |= 1 time
Riff D /

Play Chords of Chorus as shown directly above the song structure.
Другие песни: