IncubusLeech Текст

0 Голосов
leech								tab by max


verse

------9------
-------------
---7---------
--9-9--------
-------------
-------------

chorus

--------------------------------------------------------
--------------------------------------------------------
----0------0------0-0-0----0------0---------------------
---6-6-6--6-6-6--6-6-6-6--6-6-6--6-6-6----6-6-77777777--
---------7---7------------------7---7---------77777777--
--9---9---------5--------9---9---------5-5-5--55555555--

'the ride's over...'
* *(strum chord as much as needed)
--------------------------------------------
--------------------------------------0-----
------------------------------------3--3----
--------2-------2--14-14/9--------2-2----2--
--------1-------1--13-13/7--------1-1----1--
--2-0-2---2-0-2----14-14/0--2-0-2---2----2--

*
--------------------------------------------
--------------------------------------------
-----------------------------------------6--
--------2-------2--14-14/9--------2------5--
--------1-------1--13-13/7--------1---------
--2-0-2---2-0-2----14-14/0--2-0-2--2-0------

heavy riff

-----------b----------------0--xxxxx--------
-------------------------------xxxxx--------
-----------5-------4-----------xxxxx--------
-----------4--------4----------xxxxx--------
--4-4-4-4----4-4-4-----4-4-----xxxxx--------
--2-0-2-0----0-2-0-----2-0-----xxxxx--------
Другие песни: