In FlamesZombie Inc Текст

0 Голосов
Guitar I 
E||------------------------------|----------------------|
B||------------------------------|----------------------|
G||------------------------------|-----------9~---------|
D||--10--9----10--9-10-9---------|--------9-------------|
A||-----------------------12--7--|----10----------------|
E||------------------------------|----------------------|

---------------------------|-----------------------|
---------------------------|-----------------------|
------------9--------------|-----------------------|
--10----10-------10----12--|----10--9--------------|
---------------------------|-----------12----------|
---------------------------|-----------------------|

------------------------------|----------------------|
------------------------------|----------------------|
------------------------------|-----------9~---------|
--10--9----10--9-10-9---------|--------9-------------|
-----------------------12--7--|----10----------------|
------------------------------|----------------------|

---------------------------|-----------------------|
---------------------------|-----------------------|
---------------------------|-----------------------|
--10------9------------12--|--------10----9~-------|
---------------12--10------|-----------------10----|
---------------------------|-----------------------|

---------------------------------|------------------------|
---------------------------------|------------------------|
---------------------------------|------------11~---------|
--12--11----12--11-12-11---------|--------11--------------|
--------------------------14--9--|----12------------------|
---------------------------------|------------------------|

----------------------------|------------------------|
----------------------------|------------------------|
------------11--------------|------------------------|
--12----12--------12----14--|----12--11--------------|
----------------------------|------------14----------|
----------------------------|------------------------|

---------------------------------|------------------------|
---------------------------------|------------------------|
---------------------------------|------------11~---------|
--12--11----12--11-12-11---------|--------11--------------|
--------------------------14--9--|----12------------------|
---------------------------------|------------------------|

--------------------------|----------------------|
--------------------------|----------------------|
-----------------------9--|----------------------|
--12------11----9---------|--------12----11~-----|
-------------------12-----|----------------------|
--------------------------|----------------------|

|-------------------------------|------------------------------|
|-------------------------------|------------------------------|
|*------------------------------|----------------7-------------|
|*--7--10--9--10--7--10--9--10--|--7--10--9--10-----10--9--10--|
|-------------------------------|------------------------------|
|-------------------------------|------------------------------|

--------------------------|--------------------------|
--------------------------|--------------------------|
-----5--4--5-----5--4--5--|-----5--4--5-----5--4--5--|
--3-----------3-----------|--3-----------3-----------|
--------------------------|--------------------------|
--------------------------|--------------------------|

------------------------------|------------------------------|
------------------------------|------------------------------|
------------------------------|----------------7-------------|
--7--10--9--10--7--10--9--10--|--7--10--9--10-----10--9--10--|
------------------------------|------------------------------|
------------------------------|------------------------------|

--------------------------|------------------------||----------------------|
--------------------------|--------------3~--------||----------------------|
-----5--4--5-----5--4--5--|-----5--4--5-----------*||----------------------|
--3-----------3-----------|--3--------------------*||----------------------|
--------------------------|------------------------||--8~---7--8----8~-----|
--------------------------|------------------------||----------------------|

----------------------------|--------------------------|
----------------------------|--------------------------|
--------------7-------------|--------------------------|
--7----9--10-----10--9------|--------------------------|
------------------------10--|--10~---10--10----10~-----|
----------------------------|--------------------------|

-----------------------------|----------------------|
-----------------------------|----------------------|
--9----10------9-------------|----------------------|
-----------12-----10--12--9--|----------------------|
-----------------------------|--8~---7--8----8~-----|
-----------------------------|----------------------|

----------------------------|--------------------------|
----------------------------|--------------------------|
--------------7-------------|--------------------------|
--7----9--10-----10--9------|--------------------------|
------------------------10--|--10~---10--10----10~-----|
----------------------------|--------------------------|

-----------------------------||-------------------------------|
-----------------------------||-------------------------------|
--9----10------9-------------||*------------------------------|
-----------12-----10--12--9--||*--7--10--9--10--7--10--9--10--|
-----------------------------||-------------------------------|
-----------------------------||-------------------------------|

------------------------------|--------------------------|
------------------------------|--------------------------|
----------------7-------------|-----5--4--5-----5--4--5--|
--7--10--9--10-----10--9--10--|--3-----------3-----------|
------------------------------|--------------------------|
------------------------------|--------------------------|

--------------------------|------------------------------|
--------------------------|------------------------------|
-----5--4--5-----5--4--5--|------------------------------|
--3-----------3-----------|--7--10--9--10--7--10--9--10--|
--------------------------|------------------------------|
--------------------------|------------------------------|

------------------------------|--------------------------|
------------------------------|--------------------------|
----------------7-------------|-----5--4--5-----5--4--5--|
--7--10--9--10-----10--9--10--|--3-----------3-----------|
------------------------------|--------------------------|
------------------------------|--------------------------|

------------------------||----------------------|----------------------------|
--------------3~--------||----------------------|----------------------------|
-----5--4--5-----------*||----------------------|--------------7-------------|
--3--------------------*||----------------------|--7----9--10-----10--9------|
------------------------||--8~---7--8----8~-----|------------------------10--|
------------------------||----------------------|----------------------------|

--------------------------|-----------------------------|----------------------|
--------------------------|-----------------------------|----------------------|
--------------------------|--9----10------9-------------|----------------------|
--------------------------|-----------12-----10--12--9--|----------------------|
--10~---10--10----10~-----|-----------------------------|--8~---7--8----8~-----|
--------------------------|-----------------------------|----------------------|

----------------------------|--------------------------|
----------------------------|--------------------------|
--------------7-------------|--------------------------|
--7----9--10-----10--9------|--------------------------|
------------------------10--|--10~---10--10----10~-----|
----------------------------|--------------------------|

-----------------------------|----------------------|
-----------------------------|----------------------|
--9----10------9-------------|----------------------|
-----------12-----10--12--9--|----------------------|
-----------------------------|--8~---7--8----8~-----|
-----------------------------|----------------------|

----------------------------|--------------------------|
----------------------------|--------------------------|
--------------7-------------|--------------------------|
--7----9--10-----10--9------|--------------------------|
------------------------10--|--10~---10--10----10~-----|
----------------------------|--------------------------|

-----------------------------|----------------------|
-----------------------------|----------------------|
--9----10------9-------------|----------------------|
-----------12-----10--12--9--|----------------------|
-----------------------------|--8~---7--8----8~-----|
-----------------------------|----------------------|

----------------------------|--------------------------|
----------------------------|--------------------------|
--------------7-------------|--------------------------|
--7----9--10-----10--9------|--------------------------|
------------------------10--|--10~---10--10----10~-----|
----------------------------|--------------------------|

-----------------------------|-----------------------------|
-----------------------------|-----------------------------|
--9----10------9-------------|--9----10------9-------------|
-----------12-----10--12--9--|-----------12-----10--12--9--|
-----------------------------|-----------------------------|
-----------------------------|-----------------------------|

-----------------------------|----------------------|
-----------------------------|----------------------|
-----------------------------|----------------------|
-----------------------------|-----------9~---------|
--10--9----10--9-10-9--7-----|--------9-------------|
--------------------------7--|----10----------------|

---------------------------|-----------------------|
---------------------------|-----------------------|
---------------------------|-----------------------|
------------9--------------|-----------------------|
--10----10-------10----12--|----10--9--------------|
---------------------------|-----------12----------|

-----------------------------|----------------------|
-----------------------------|----------------------|
-----------------------------|----------------------|
-----------------------------|-----------9~---------|
--10--9----10--9-10-9--7-----|--------9-------------|
--------------------------7--|----10----------------|

---------------------------|-----------------------|--------------------------|
---------------------------|-----------------------|--8--7----8--7-8-7--------|
---------------------------|-----------------------|--------------------9-----|
---------------------------|-----------------------|-----------------------9--|
--10------9------------12--|--------10----9~-------|--------------------------|
---------------12--10------|-----------------10----|--------------------------|

----------7~---------|----------7-------------|---------------------|
-------7-------------|--8----8-------8----10--|----8--7-------------|
----7----------------|------------------------|----------9~---------|
---------------------|------------------------|---------------------|
---------------------|------------------------|---------------------|
---------------------|------------------------|---------------------|

--------------------------|----------7~---------|------------------------|
--8--7----8--7-8-7--------|-------7-------------|--8------7----------10--|
--------------------9-----|----7----------------|--------------9--7------|
-----------------------9--|---------------------|------------------------|
--------------------------|---------------------|------------------------|
--------------------------|---------------------|------------------------|

---------------------|------------------------|---------------------|
--------8----7-------|--8------7----------10--|--------8----7-------|
----------------7----|--------------9--7------|----------------7----|
---------------------|------------------------|---------------------|
---------------------|------------------------|---------------------|
---------------------|------------------------|---------------------|

------------7--7----7--|----7---------------|-----------7--7----7--|
------------8--7----7--|----8---------------|-----------8--7----7--|
--9---------9--9----9--|----9---------------|-----------9--9----9--|
------------9--9----9--|----9---------------|-----------9--9----9--|
------------7-------7--|----7---------------|-----------7-------7--|
--0----0---------------|---------------0----|--0-------------------|

----7--------7--7--7--|------------7--7----7--|----7---------------|
----8--------8--8--8--|------------8--7----7--|----8---------------|
----9--------9--9--9--|------------9--9----9--|----9---------------|
----9--------9--9--9--|------------9--9----9--|----9---------------|
----7--------7--7--7--|------------7-------7--|----7---------------|
----------------------|--0----0---------------|---------------0----|

-----------7--7----7--|----7--------7--7--7--|------------7------7--|
-----------8--7----7--|----8--------8--8--8--|------------8------8--|
-----------9--9----9--|----9--------9--9--9--|------------9------9--|
-----------9--9----9--|----9--------9--9--9--|------------9---------|
-----------7-------7--|----7--------7--7--7--|--7----7----7---------|
--0-------------------|----------------------|--0----0--------------|

------------2------2--|------------0------0--|-------2----2-3-2--0--2--|
------------3------3--|------------1------1--|-------3----3------------|
------------4------4--|------------0------0--|----2--2----2------------|
------------4---------|--2----2----2---------|----0--0----0------------|
--2----2----2---------|--3----3----3---------|-------------------------|
----------------------|----------------------|-------------------------|

------------7------7--|------------2------2--|------------0------0--|
------------8------8--|------------3------3--|------------1------1--|
------------9------9--|------------4------4--|------------0------0--|
------------9---------|------------4---------|--2----2----2---------|
--7----7----7---------|--2----2----2---------|--3----3----3---------|
--0----0--------------|----------------------|----------------------|

-------2----2-3-2--0--2--|------------7------7--|------------2------2--|
-------3----3------------|------------8------8--|------------3------3--|
----2--2----2------------|------------9------9--|------------4------4--|
----0--0----0------------|------------9---------|------------4---------|
-------------------------|--7----7----7---------|--2----2----2---------|
-------------------------|--0----0--------------|----------------------|

------------0------0--|-------2----2-3-2--0--2--|------------7------7--|
------------1------1--|-------3----3------------|------------8------8--|
------------0------0--|----2--2----2------------|------------9------9--|
--2----2----2---------|----0--0----0------------|------------9---------|
--3----3----3---------|-------------------------|--7----7----7---------|
----------------------|-------------------------|--0----0--------------|

------------2------2--|------------0------0--|--------------------------|
------------3------3--|------------1------1--|--------------------------|
------------4------4--|------------0------0--|--------------------------|
------------4---------|--2----2----2---------|--7--7--7--7--4--4--4--4--|
--2----2----2---------|--3----3----3---------|--5--5--5--5--2--2--2--2--|
----------------------|----------------------|--------------------------|

--12--------12------14--|------14------14--12------|--15--------15------17--|
------------------------|----------------------15--|------------------------|
------------------------|--------------------------|------------------------|
------------------------|--------------------------|------------------------|
------------------------|--------------------------|------------------------|
------------------------|--------------------------|------------------------|

------------17--19--20--|--19--------17---15---17--|--------------------|
------------------------|--------------------------|----15--------------|
------------------------|--------------------------|--------------------|
------------------------|--------------------------|--------------------|
------------------------|--------------------------|--------------------|
------------------------|--------------------------|--------------------|

------------------------------|------------------------|
----------------12--13----12--|--------------------15--|
--11--12--14------------------|------------12--14------|
------------------------------|------------------------|
------------------------------|------------------------|
------------------------------|------------------------|

|--------7------------------|---------------------------|
|--------------10-----8-----|--7-8-7-----------7--8-----|
|*--9-------9------9-----9--|---------9--7--9--------9--|
|*--------------------------|---------------------------|
|---------------------------|---------------------------|
|---------------------------|---------------------------|

------7------------------|--7-8-7-------------7---------||
------------10-----8-----|---------10--8--10-----8------||
---------9------9-----9--|--------------------------9--*||
-------------------------|-----------------------------*||
-------------------------|------------------------------||
-------------------------|------------------------------||

------------7--7-------|-------2---------------|-----------------------|
------------8--7-------|-------x---------------|-----------------------|
------------9--9-------|-------4------------4--|-----------0-----------|
------------9--9-------|-------4---------4-----|--------------2-----0--|
------------7-------2--|----2--2------2--------|--3--------------3-----|
--0----0---------------|-----------------------|-----------------------|

-------2----2-3-2--0--2--|------------7--7-------|-------2---------------|
-------3----3------------|------------8--7-------|-------x---------------|
----2--2----2------------|------------9--9-------|-------4------------4--|
----0--0----0------------|------------9--9-------|-------4---------4-----|
-------------------------|------------7-------2--|----2--2------2--------|
-------------------------|--0----0---------------|-----------------------|

----------------------|--------------------------|
----------------------|--------------------------|
-----------0----------|--------------------------|
--------------2-------|--7--7--7--7--4--4--4--4--|
--3--------------3----|--5--5--5--5--2--2--2--2--|
----------------------|--------------------------|

|-------------------------------|------------------------------|
|-------------------------------|------------------------------|
|*------------------------------|----------------7-------------|
|*--7--10--9--10--7--10--9--10--|--7--10--9--10-----10--9--10--|
|-------------------------------|------------------------------|
|-------------------------------|------------------------------|

--------------------------|--------------------------|
--------------------------|--------------------------|
-----5--4--5-----5--4--5--|-----5--4--5-----5--4--5--|
--3-----------3-----------|--3-----------3-----------|
--------------------------|--------------------------|
--------------------------|--------------------------|

------------------------------|------------------------------|
------------------------------|------------------------------|
------------------------------|----------------7-------------|
--7--10--9--10--7--10--9--10--|--7--10--9--10-----10--9--10--|
------------------------------|------------------------------|
------------------------------|------------------------------|

--------------------------|------------------------||----------------------|
--------------------------|--------------3~--------||----------------------|
-----5--4--5-----5--4--5--|-----5--4--5-----------*||----------------------|
--3-----------3-----------|--3--------------------*||----------------------|
--------------------------|------------------------||--8~---7--8----8~-----|
--------------------------|------------------------||----------------------|

----------------------------|--------------------------|
----------------------------|--------------------------|
--------------7-------------|--------------------------|
--7----9--10-----10--9------|--------------------------|
------------------------10--|--10~---10--10----10~-----|
----------------------------|--------------------------|

-----------------------------|----------------------|
-----------------------------|----------------------|
--9----10------9-------------|----------------------|
-----------12-----10--12--9--|----------------------|
-----------------------------|--8~---7--8----8~-----|
-----------------------------|----------------------|

----------------------------|--------------------------|
----------------------------|--------------------------|
--------------7-------------|--------------------------|
--7----9--10-----10--9------|--------------------------|
------------------------10--|--10~---10--10----10~-----|
----------------------------|--------------------------|

-----------------------------|----------------------|
-----------------------------|----------------------|
--9----10------9-------------|----------------------|
-----------12-----10--12--9--|----------------------|
-----------------------------|--8~---7--8----8~-----|
-----------------------------|----------------------|

----------------------------|--------------------------|
----------------------------|--------------------------|
--------------7-------------|--------------------------|
--7----9--10-----10--9------|--------------------------|
------------------------10--|--10~---10--10----10~-----|
----------------------------|--------------------------|

-----------------------------|----------------------|
-----------------------------|----------------------|
--9----10------9-------------|----------------------|
-----------12-----10--12--9--|----------------------|
-----------------------------|--8~---7--8----8~-----|
-----------------------------|----------------------|

----------------------------|--------------------------|
----------------------------|--------------------------|
--------------7-------------|--------------------------|
--7----9--10-----10--9------|--------------------------|
------------------------10--|--10~---10--10----10~-----|
----------------------------|--------------------------|

-----------------------------|-----------------------------|
-----------------------------|-----------------------------|
--9----10------9-------------|--9----10------9-------------|
-----------12-----10--12--9--|-----------12-----10--12--9--|
-----------------------------|-----------------------------|
-----------------------------|-----------------------------|

|------------------------------|----------------------|
|------------------------------|----------------------|
|*-----------------------------|----------------------|
|*-----------------------------|-----------9~---------|
|---10--9----10--9-10-9--7-----|--------9-------------|
|---------------------------7--|----10----------------|

---------------------------|-----------------------|
---------------------------|-----------------------|
---------------------------|-----------------------|
------------9--------------|-----------------------|
--10----10-------10----12--|----10--9--------------|
---------------------------|-----------12----------|

-----------------------------|----------------------|
-----------------------------|----------------------|
-----------------------------|----------------------|
-----------------------------|-----------9~---------|
--10--9----10--9-10-9--7-----|--------9-------------|
--------------------------7--|----10----------------|

---------------------------|-----------------------|--------------------------|
---------------------------|-----------------------|--8--7----8--7-8-7--------|
---------------------------|-----------------------|--------------------9-----|
---------------------------|-----------------------|-----------------------9--|
--10------9------------12--|--------10----9~-------|--------------------------|
---------------12--10------|-----------------10----|--------------------------|

----------7~---------|----------7-------------|---------------------|
-------7-------------|--8----8-------8----10--|----8--7-------------|
----7----------------|------------------------|----------9~---------|
---------------------|------------------------|---------------------|
---------------------|------------------------|---------------------|
---------------------|------------------------|---------------------|

--------------------------|----------7~---------|------------------------|
--8--7----8--7-8-7--------|-------7-------------|--8------7----------10--|
--------------------9-----|----7----------------|--------------9--7------|
-----------------------9--|---------------------|------------------------|
--------------------------|---------------------|------------------------|
--------------------------|---------------------|------------------------|
Другие песни: