Ill NinoIf You Still Hate Me Текст

0 Голосов
Ill Nino-If You Still Hate Me

Album-Revolution.. Revolucion
By: ProjectWyze13

.=Palm Mute

Intro
----------------------------------------
----------------------------------------
----------------------------------------
----------------------------------------
--0-0--------0-0--------0-0--------0-0--
--0-0--------0-0--------0-0--------0-0--

Riff #1
---------------------------------
---------------------------------
---------------------------------
---------------------------------
--1-0--1-1-0--1-1-0--1-1-0--x-3--
--1-0--1-1-0--1-1-0--1-1-0--x-3--

Verse
----------------------------------------
----------------------------------------
----------------------------------------
----------------------------------------
--1-0-------0-1-0-------1-0------0-1-0--
--1-0-------0-1-0-------1-0------0-1-0--

--------------------------------------------------
--------------------------------------------------
--------------------------------------------------
--------------------------------------------------
--1-0-------0-1-0-------1-0------0-0-0-0-0-0-0-0--
--1-0-------0-1-0-------1-0------0-0-0-0-0-0-0-0--
. . . . . . . .
Pre-Chorus (w/ wah)
----------------------------------------
----------------------------------------
--------10-10-10--7-7-7--8-8-8-8-8-8-8--
---------x--x--x--x-x-x--x-x-x-x-x-x-x--
--8-8-8--8--8--8--5-5-5--6-6-6-6-6-6-6--
--8-8-8---------------------------------

Chorus
---------------------------------------------
---------------------------------------------
---------------------------------------------
---------------------------------------------
------------5*---------------------5*--------
--1-0-0-0------0-1h3p1p0--1-0--0-0----0-0-0--
. . . . . . . .
Другие песни: