IdlewildRusty Текст

0 Голосов
band:idlewild
album:100 Broken Windows(2000)
song:rusty
bassist:bob fairfoul
tabber:paul(idlewild@users.basstabarchive.com

you look worn out
g----------------------------------------------------------------------------------------
d----------------------------------------------------------------------------------------
a-6-6--6-6--6-6--6-6-6-6-----------------------------------------------------------------
e-------------------------4-4--4-4--4-4--4-4-4-4--7-7--7-7--7-7--7-7-7-7-2-2-2-2-1-1-1-1-

CROFT!!(this bit is a little off)
g----------------------9-9-9-9---------------------------------
d-*------------9-9-9-9---------9-9-9-9*------------------------
a-*7-7-7-7-7-7------------------------*-11-11-11-11-13-13-13-13
e--------------------------------------------------------------

what are you looking for?
g------------------------------------------------------------
d------------------------------------------------------------
a-6-6-6-6-6-6-6-6-6-6-6-6------------------------------------
e-------------------------7-7-7-7-5-4-4-4-4-5-7-7-7-7-9-9-9-9

bridge
g--------------------
d--------------------
a-4-6-4-6-4-6-4-6-6-6
e--------------------
Другие песни: