IdlewildMistake Pageant Текст

0 Голосов
#----------------------------------PLEASE NOTE---------------------------------#

#This file is the author's own work and represents their interpretation of the #
# song . You may only use this file for private study, scholarship, or research. #
#------------------------------------------------------------------------------#
#


Title: MISTAKE PAGEANT
Artist: IDLEWILD
Transcribed by: ANDREW CROSS email: BIGMUFFED@AOL.COM







PLAY THE RIFFS ALONG TO THE RHYTHM OF THE SONG-NOTE-THERE IS NO ACCURATE TIMING IN THE TRANSCRIPTION.


THIS IS THE INTRO AND MAIN RIFF WHICH PLAYS THE SAME THROUGH THE VERSES THROUGHOUT THE WHOLE SONG


E------------------------------------------
B------------------------------------------
G-------------9----------------9---------
D------0------------0----0---------------
A----------------------------------------0-
E-------------------------------------------

E-------------------------------------------|
B-------------------------------------------|
G------9---------------9-------------------|REPEAT
D---------------------------0---------------|
A-----------0---0--------------0-----------|
E--------------------------------------------|

THIS IS THE FIRST PART OF THE CHORUS

IT WAS A

E------------------------------------------
B------------------------------------------
G------------------------------------------
D-------------------0----------------0----
A-------------4----------------4-----------
E--------2----------------2-----------------

A MISTAKE PAGEANT………….

E-----------------------------------------|-
B-----------------------------------------|-
G-------------2---- 2----2----4-----2---|-REPEAT
D-------------2-----2----2---------------| TWICE
A-------4-----0-----0----0----------------|MORE
E---2--------------------------------------|-

END OF CHORUS


…AND I DON’T UNDERSTAND

D5
E--------------------------------------
B--------------------------------------
G-----7----7----7---7----7---7----7----
D-----7----7----7---7----7---7----7----
A-----5----5----5---5----5---5----5----
E--------------------------------------




END OF CHORUS


THE WAY THAT YOU’RE LIVING

E
E---------------------------------------|
B---------------------------------------|
G---7-----------------------------------|
D---7----2----2----2----2-----2------2--|
A---5----2----2----2----2 ----2------2--|
E--------0----0----0----0-----0------0--|


END OF SECOND CHORUS

D5
E------------------------------------
B------------------------------------
G-----7----7----7---7----7---7----7--
D-----7----7----7---7----7---7----7--
A-----5----5----5---5----5---5----5--
E------------------------------------

E
E------------------------------------------|
B------------------------------------------|
G--7-----9----9-----9---9-----9------9-----|
D--7-----9----9-----9---9-----9------9-----|
A--5-----7----7-----7---7-----7------7-----|
E--------0----0-----0---0-----0------0-----|



SECOND PART OF CHORUS

YOU’VE HAD BAD..
A E
E---5------5------5-------------------------
B---5------5------5-------------------------
G---6------6------6--------9----9----9------
D---7------7------7--------9----9----9------
A---7------7------7--------7----7----7------
E---5------5------5--------0----0----0------



… LUCK (DISORDER)……..
F# C# D E
E-----------------------------------------------
B-----------------------------------------------
G---3----3----3-------6--/---7--/----9-----REPEAT-
D---4----4----4-------6--/---7--/----9------------
A---4----4----4-------4--/---5--/----7------------
E---2----2----2-----------------------------------
Другие песни: