Idlewild4 People Do Good Текст

0 Голосов
band:idlewild
song:4 people do good
bassist:bob fairfoul
tabber:paul(idlewild@users.basstabarchive.com, for any requests)
a member of the bass tab army @ www.basstabarchive.com

g----------------------------
d-1-1-1--1-1-1--1-1-1--1-1-1-
a----------------------------
e----------------------------

g---------------------
d---------------2-2-2-
a-------------2-------
e-4-4-4-2-0-2---------

g-----------------4-4-4-
d-1-1-1-1-2-2-2-2-------
a-----------------------
e-----------------------

g-----------------------
d-1-1-1-1-2-2-2-2-4-4-4-
a-----------------------
e-----------------------

haven't written out teh structure it's not too difficult mail me with any
problems
Другие песни: