I Mother EarthRaspberry Текст

0 Голосов
Raspberry
By I Mother Earth
From the album Scenery and Fish

Tabbed by Jon Stubbs (jstubbs@onlinesupport.pe.ca)

Alright first off, let me say that I know some of the licks aren't
exactly correct, but they're pretty damned close. Any suggestions,
corrections or comments can be sent to me. I appreciate all feedback.
Also I play this on a 5 string with a low B and switched it over to
4 string so some of the fingerings might be a little weird.

Verse
G ----------------------------------------------------------------------
D ----------------------------------------------------------------------
A ---7-6--------------7-6----/7-9-7-9-7------------7-6---7--------------
E -------7---5-4-0--------7--------------2-0-2-0-------7----------------

Prechorus
Throw the low E in everyone in a while.
G ----------------------------------------------------------------------
D ----------------------------------------------------------------------
A --7-7-7-7-7-7-7--5-5-5-5-5h7-7-7-7-7---------------------------------
E ----(0)---(0)-----------------(0)-------------------------------------

The last time do this
G ----------------------------------------------------------------------
D ----------------------------------------------------------------------
A --7-7-7-7-7-7-7--9-7-5-5-7/12-12-12-12--------------------------------
E ----(0)---(0)---------------------------------------------------------

Chorus

G ----------------------------------------------------------------------
D --------------------------------------------------------------5h7-5h7-
A --7-7--5-5-5p4-4-4-4-4-4---2-4-4-2------------------------------------
E -------------------------4---------4-2---4-4-4-5-5-5-7-7-7-7----------

G ----------------------------------------------------------------------
D ------------------16-14-----------------------------------------------
A --7-7--5-5-5p4/16-------16-16-14--------------------------------------
E ---------------------------------16-144-4-4-4-5-5-5-7-7-7-7----------

1st chorus 2nd Chorus 3rd (Final) Chorus
G ---------------- G ---------------- Do both of them, one
D ---------------- D ---------------- after the other
A ---------------- A ----------------
E -4h5-4-2--3-2-0- E -4h5-4-2--3-2-1-

Bridge

G ----------------------------------------------------------------------
D ----------------------------------------------------------------------
A ------------------------5---------5-7-----17--------------------------
E -0-1-0-1-0-1-~0---10~0---5-3-5-7------0----17-15--12-12-10-8-7-5-3-0-

*Repeat*
G ----------------------------------------------------------------------
D ----------------------------------------------------------------------
A ---7-10---7-----------------------------------------------------------
E -0------0---8-7-------------------------------------------------------

Over the Explosions of the goldfish bowl
G ----------------------------------------------------------------------
D ----------------------------------------------------------------------
A ----------------------------------------------------------------------
E --~0---0--0--0-0-0----------------------------------------------------

Ruling Me *Repeat*
G ----------------------------------------------------------------------
D ----------------------------------------------------------------------
A --------7-----------3-5-----------------------------------------------
E --0-0-----5-3-0--3-5--------------------------------------------------

The last time do this
G -----------------------------------------------------------7-9-7-9-7-9
D ----------------------------------------444444-7-7-5-5-4-4------------
A ------7------------3-5--3-3-33353335335-------------------------------
E --0-0---5-3-0--3-5----------------------------------------------------

That's all the parts, just put them in their arranged order and voila.
It goes:

Verse
Prechorus
Chorus
Verse
Prechorus
Chorus
Bridge
Prechorus
Chorus
Другие песни: