Home GrownSecret Song 44 Текст

0 Голосов
Song: Secret song #44
Band: HomeGrown
Album: That's Business
tabbed by: Suprnaut24@aol.com



Bass (intro)
G:---------------------------------------------------------------
D:----------------------3-4-5-(play as a triplette)-----------
A:-------2---2-3---3-4-----------------------------------------
E:-3---3--------------------------------------------------------

Riff 2 (intro) Play only once after the first riff
G:---------------------------------------------------------------
D:-------------2---------3-4-5---------------------------------------
A:-------2---2--3---3-4------------------------------------------------
E:-3---3-----------------------------------------------------------

verse:
(Same as intro)

Chorus:
G:---------------------------------------------------------------
D:-------------5--------------------------------------------------
A:------2-3-4---------------2-3-4-3------------------------------------
E:-3---3--------------3---3------------------------------------------

this is a cool song so when you play go along with the rythym.
Другие песни: