HivesOutsmarted Текст, аккорды

0 Голосов
b : bend up


INTRO and CHORUS

e-|---------------|
B-|---4b---4b-----|
G-|-5----5--------|
D-|-5----5----6-5-|
A-|-3----3----6-5-|
E-|-----------4-3-|
Outsmarted
by
The hives

b : bend up

INTRO and CHORUS

e-|---------------|
B-|---4b---4b-----|
G-|-5----5--------|
D-|-5----5----6-5-|
A-|-3----3----6-5-|
E-|-----------4-3-|

VERSE

e-|-------------------|
B-|-------------------|
G-|----10----10-----5-|
D-|-10-10-10-10-6-5-5-|
A-|-10--8-10--8-6-5-3-|
E-|--8-----8----4-3---|


e-|---------------------------------------------------------------------|
B-|---------------------------------------------------------------------|
G-|------------------10-10------------------------10-10-----------10-10-|
D-|------------------10-10------------------------10-10-----------10-10-|
A-|-------------------8--8-------------------------8--8------------8--8-|
E-|---------------------------------------------------------------------|
you're outsmarted YEAH that's why i said YEAH
Другие песни: