Herrick DaveCamerons Corner Текст

0 Голосов
Dave Herrick

Cameron Corner


intro: main riff:
E---------------------------------|--------------------------------
A---------------------------------|--------------------------------
D---------------------------------|--------------------------------
G---9--7-----9--7-----9--7--------|4--4-x-x-2--4-4-x-x-2--4-4-x-x-- x2
B---7--5-----7--5-----7--5-4p5p4p0|2--2-x-x-0--2-2-x-x-0--2-2-x-x--
D---------------------------------|--------------------------------

Chours: Fill:
E----------------------| |--------------| |-------------|
A----------------------| |--------------| |-------------|
D----------------------| |--------------| |-------------|
G-x-x-7-----5--7-7--7-7|x3|-7-7-x-x-7-3-5| |-7-7--x-7-5-7| x3 then fill
B-x-x-5-----5--7-7--7-7| |-5-5-x-x-5-3-5| |-5-5--x-5-5-7|
D-----------5--7-7--7-7| |-----------3-5| |----------5-7|

Before and after the chours, you play the intro, then go back to the verses.
Listen for Correct timing.
====
Другие песни: