HelloweenYour Turn Текст

0 Голосов
Your Turn (5:39)
Helloween
(Music & lyrics: M. Kiske)

Start: A - A

A G#-F#m
Now there is this day, a lot of things are changing
E C#
Can't just kick it away, got to get things right
F#m G#-A
Sometimes it happens fast and nothin' seems to last
D E
The thing that I once started isn't mine anymore
F#m E
I guess now it's my turn

[Solo1]

A G# -- F#m
You've got a face like a child, got a mind like a woman
E C#
Your smile is warm and tender
F#m G# --- A
I hear the people say that I should stay away
D E
From you and all the problems you might bring
E F#m
They'll never know-you
F#m E A
Nobody ever knows what to do, they'll never see you cry
G# F#m E
They'll never know why

F#m-G# D E F#m-G# A --- G#
Now it's your turn to break free
F#m E A
When you want it all you've got to see
F#m-G# D E F#m-G# A
Now it's your turn to break free
D E A ----- G#
When you want the life you've got to see what it means

A G#-F#m
See the little boy holding mama's hand
D E
His eyes can see the things we've long forgotten
F#m G# A
The world is easy now--and somehow
D E
He's right until there is this day when Mickey Mouse must go away

F#m-G# D E F#m-G# A --- G#
Now it's your turn to break free
F#m E A
When you want it all you've got to see
F#m-G# D E F#m-G# A
Now it's your turn to break free
D E A ----- G#
When you want the life you've got to see what it means

[Solo2]


A
This world is crying to be free
G# F#m
This world is dying can't you see
D E
We need a turn to do it right
F#m
We need a mind-revolution
Bm
To get away from this selfishness
D E
Stop playing blind--break free

F#m-G# D E F#m-G# A --- G#
Now it's your turn to break free
F#m E A
When you want it all you've got to see
F#m-G# D E F#m-G# A
Now it's your turn to break free
D E A ----- G#
When you want the life you've got to see what it means

End: A - A - A - A

Solo1:
|----------------|----------------|---------0------|
|----------------|----------------|---------2------|
|----------------|----------------|---------2------|
|----------------|----------------|0--------2------|
|----------------|0-----------0-2-|---------0------|
|0---0---0---0-2-|----------------|----------------|


Solo2:
|----------------|----------------|-----------------|-----------------|
|3-2-------------|2-3-2-----------|3-2--------------|-----------------|
|----2-----1-----|------2---------|----2-2-4-4------|-----------------|
|----------------|----------------|-----------------|4----2-----------|
|----------------|----------------|-----------------|-----------------|
|----------------|----------------|-----------------|-----------------|


|----0-------2---|4-2-0-----------|-----------------|-----------------|
|0-2-------------|------2-----2-0-|--0-2-2----------|--0-2---3---2-0--|
|----------------|----------------|2----------------|2---------------2|
|----------------|----------------|-----------------|-----------------|
|----------------|----------------|-----------------|-----------------|
|----------------|----------------|-----------------|-----------------|

Overdrive.
|----------------|------------9---|-----------------|-----------------|
|3---2-3-5-5-----|10-----12-------|12------10---10--|101010-9---999-7-|
|----------------|----------------|-----------------|-----------------|
|----------------|----------------|-----------------|-----------------|
|----------------|----------------|-----------------|-----------------|
|----------------|----------------|-----------------|-----------------|


|----------------|----------------|-----------------||
|777-------------|----------------|-----------------||
|----9-----------|----------------|-----------------||
|--------999-7---|777-6-6-4-4-2---|2-0--------------||
|----------------|----------------|----2------------||
|----------------|----------------|-----------------||

Many thanks to Nick Ng for sending this to me.

----------------------------------------------------
More Tab's Can You Find At:
http://w1.346.telia.com/~u34603481
Другие песни: