HelloweenIf I Could Fly Текст

0 Голосов
Intro and chorus:
piano arranged for guitar
--------------------------------------------------------------------
--------------------------------------------------------------------
--17--16-------17--16-----------12-------14--16---------------------
----------14-----------14----12----14-------------------------------
--------------------------------------------------------------------
--------------------------------------------------------------------

-------------------------------------------------------17--19-------
------------------------------------------------15--17--------------
--17--16-------17--16-----------12-------14--16---------------------
----------14-----------14----12----14-------------------------------
--------------------------------------------------------------------
--------------------------------------------------------------------

--------------------------------------------------------------------
--------------------------------------------------------------------
--17--16-------17--16-----------12-------14--16---------------------Gtr
----------14-----------14----12----14------------------------------- I
--------------------------------------------------------------------
--------------------------------------------------------------------

--------------------------------------------------------------------
--------------------------------------------------------------------
--------------------------------------------------------------------Gtr
--777777777777777777777-55555555555--222222----7---7---------------- II
--777777777777777777777-55555555555--222222----7---7----------------
--555555555555555555555-33333333333--000000--005-005----------------

Verse
--------------------------------------------------------------------
--------------------------------------------------------------------
--------------------------------------------------------------------Gtr
-------------------------------------------------------------------- I
--------------------------------------------------------------------
--------------------------------------------------------------------

--------------------------------------------------------------------
--------------------------------------------------------------------
--------------------------------------------------------------------Gtr
--777777777777777777777-55555555555--222222----7---7---------------- II
--777777777777777777777-55555555555--222222----7---7----------------
--555555555555555555555-33333333333--000000--005-005----------------

Chorus
--------------------------------------------------------------------
--------------------------------------------------------------------
--17--16-------17--16-----------12-------14--16---------------------Gtr
----------14-----------14----12----14------------------------------- I
--------------------------------------------------------------------
--------------------------------------------------------------------

--------------------------------------------------------------------
--------------------------------------------------------------------
--------------------------------------------------------------------Gtr
--777777777777777777777-55555555555--222222----7---7---------------- II
--777777777777777777777-55555555555--222222----7---7----------------
--555555555555555555555-33333333333--000000--005-005----------------

Solo
---/15~~--15-17-----------------------------------------------------
----------------15~-15-17-------------------------------------------
--------------------------14~---------14-17---14-17--14-17-14~------Gtr
-----------------------------------/14------14-----14--------------- I
--------------------------------------------------------------------
--------------------------------------------------------------------

--------------------------------------------------------------------
--------------------------------------------------------------------
--------------------------------------------------------------------Gtr
--7------------10------------------7-------------------------------- II
--7------------10------------------7--------------------------------
--5------------8-------------------5--------------------------------

--/12-13-15b17~--15-13-12-------------------------------------------
--------------------------15-13-12-15-13-12-------------------------
--------------------------------------------16-14-12-14~------------
--------------------------------------------------------------------
--------------------------------------------------------------------
--------------------------------------------------------------------

--------------------------------------------------------------------
--------------------------------------------------------------------
--------------------------------------------------------------------
--3--------------------------5------------------------7-------------
--3--------------------------5------------------------7-------------
--1--------------------------3------------------------5-------------

Interlude } x2
---------------------------------
---------------------------------
---------------------------------
---7----5-----3----------5-------
---7----5-----3----------5-------
---5----3-----1-11111111-3-------
Другие песни: